Isaak Chris - Wrong To Love You Chords & Tabs

 

Wrong To Love You Chords & Tabs

Isaak Chris Chords & Tabs

Version: 2 Type: Chords 0 ratings
1 star 2 stars 3 stars 4 stars 5 stars
comments

Wrong To Love You Chords

   
WRONG TO LOVE YOU
by Chris Isaak

from the album “Heart Shaped World” (1989)


transcribed by Steve Garner (s_garner@hotmail.com)



Intro / Main Riff:
|---------------------------------------------------|
|---------------------------------------------------|
|---------------------------------------------------|
|-------------0----2---------------------0----2-----|
|---------0h2----2----0--------------0h2----2----0--|
|--2b-0-------------------2b-2b--0------------------|

|------------------------------------------------------------|
|------------------------------------------------------------|
|------------------------------------------------------------|
|-------------0----2----------------------0----2-------------|
|---------0h2----2----0---0-----------0h2----2----0----------|
|--2b-0---------------------2b-2b--0------------------2b--0--|


E             A       E            A
Little girl standing, and I'm so alone
E             A       E              A
Little girl whispers, stranger come home
E           A    E           A
Sad little eyes, so much to say
E          A    E             A
Oh what a game little girls play, and it must be


E         A               E
Wrong to love you like I do, it must be
E         A               E     A
Wrong to love you like I do


E            A       E                A
Little girl talking, can't stand her spell
E            A      E       A
Little girl moving, moving slowly
E           A     E              A
I can hear music, sounds so far away
E               A      E                     A
And I can hear voices, I know just what they say, it must be

[ Tab from: http://www.guitartabs.cc/tabs/i/isaak_chris/wrong_to_love_you_crd_ver_2.html ]
E         A               E
Wrong to love you like I do, it must be
E         A               E    A
Wrong to love you like I do


E   A    E               A
My head goes round and round
E   A     E                 A
My heart comes a tumblin’ down
E          A           E                 A
Your hot kisses only make me know it's true
E         A            E                 A
Your hot loving only makes me think of you, it must be


Solo: E-A-E-A-E-A-E-A


N.C.
There will be no song of love there will be no sweet refrain
N.C.
There will be no soft goodbye or slow walk in the rain
E                  A                  E                   A
There will be no whispered words, no vows that can't come true
E            A   E                 A
There's only me waiting here for you, it must be


E         A               E              A
Wrong to love you like I do (Wrong to love you) it must be
E         A               E              A
Wrong to love you like I do (Wrong to love you)          
          E                   A
Wrong to love you,(Wrong to love you)          
          E                   A
Wrong to love you (Wrong to love you)
          E                   A                E              A
Wrong to love you (Wrong to love you) Like I do
E         A         E         A
Do, I do, I do, I do, I do, I do, I do
E         A         E       A
Do, I do, I do, I do, I do, I do, I 
E
I do!
Comments