Isaac Albeniz - Leyenda Asturias Chords & Tabs

 

Leyenda Asturias Chords & Tabs

Isaac Albeniz Chords & Tabs

Version: 3 Type: Tab 0 ratings
1 star 2 stars 3 stars 4 stars 5 stars
comments

Leyenda Asturias Tab

Well, this simplified version is much much easier, and gives much less thrill,
but good for the less experienced classical guitarists. 

i = index finger   m = middle finger

     im

e|--00--00--00--00--00--00--00--00--00--00--00----00--00--00--00--00--00-|
B|-----------------------------------------------------------------------|
G|-----------------------------------------------------------------------|
D|-----2---3---0---2----------2---3---0---2----------2---3---0---2-------|
A|-0------------------3---0------------------3---0------------------3----|
E|-----------------------------------------------------------------------|

e|--00--00--00--00--00--00----|
B|----------------------------|
G|----------------------------|
D|-0-----------0--------------|
A|-----2---3-------2---3------|
E|----------------------------|
[ Tab from: http://www.guitartabs.cc/tabs/i/isaac_albeniz/leyenda_asturias_tab_ver_3.html ]
e|--00--00--00--00--00--00--00--00--00--00--00----00--00--00--00--00--00-|
B|-----------------------------------------------------------------------|
G|-----------------------------------------------------------------------|
D|-----2---3---0---2----------2---3---0---2----------2---3---0---2-------|
A|-0------------------3---0------------------3---0------------------3----|
E|-----------------------------------------------------------------------|

e|--00--00--00--00--00--00----|
B|----------------------------|
G|----------------------------|
D|-0--------------------------|
A|-----2---3---0--------------|
E|-----------------3---1------|

e|--00--00--00--00--00--00--00--00--00--00--00--00---|
B|---------------------------------------------------|
G|---------------------------------------------------|
D|-----2---3---0---2-----------2---3---0---2---------|
A|---------------------2-----------------------2-----|
E|-0------------------------0------------------------|

e|--00--00--00--00--00--00--00--00--00--00--00--00--00-|
B|-----------------------------------------------------|
G|---------------------0-------------------------------|
D|---------0---2---3-------2---3---0---2---------------|
A|-----2-----------------------------------3---2---0---|
E|-0---------------------------------------------------|

That's it. Hope you enjoy it! :) Lovely when it's played well. 

helios_rietberg@hotmail.com
Comments