Isaac Albeniz - La Playa Chords & Tabs

 

La Playa Chords & Tabs

Isaac Albeniz Chords & Tabs

Version: 1 Type: Tab 0 ratings
1 star 2 stars 3 stars 4 stars 5 stars
comments

La Playa Tab

   
-----------------------------------------------
           La Playa - Isaac Albeniz
-----------------------------------------------
Tabbed by: Shann
Email: basket_chick@msn.com
Tuning: standard (ebgDAE)

Solo:
e|---------------------------|-----------------------------|
B|---------------------------|-----------------------------|
G|-2-----3-2-0---------------|-------0-3-2-0-------0-0-2-2-|
D|---3-0-------3-2-0---------|-----2---------3-2-3---------|
A|-------------------4-7\4-0-|-0-4-------------------------|
E|---------------------------|-----------------------------|

e|--------------|---------------------------|
B|-----------1~-|---------------------------|
G|-2-----3-2----|-3-0-0-3-2---3-2-0---3-2-0-|
D|---3-0--------|-----------3-------2-------|
A|--------------|---------------------------|
E|--------------|---------------------------|

[ Tab from: http://www.guitartabs.cc/tabs/i/isaac_albeniz/la_playa_tab.html ]
e|----------------------------------|-----------------------------------|
B|-3/10------11-10-8----------------|-------8-11-10-8---------8-8-10-10-|
G|------10-7---------10-9-7---------|---6-9-----------10-9-10-----------|
D|--------------------------11-14/7-|-7---------------------------------|
A|----------------------------------|-----------------------------------|
E|----------------------------------|-----------------------------------|

e|---------------8~----------------------------------|
B|-10------11-10----11-8-11-10----11-10-8---11-10----|
G|----10-7---------------------10---------9-------7--|
D|---------------------------------------------------|
A|---------------------------------------------------|
E|---------------------------------------------------|

After that acoustic solo, play these chords (I'll include the strumming pattern) Or 
can play those chords while he other solos.

    Dm             A7              Gm           A
e|---1-1---1---1----3-3---3---3----3---3---3----0---0---0----|
B|---3-3---3---3----2-2---2---2----3---3---3----2---2---2----|
G|---2-2---2---2----2-2---2---2----3---3---3----2---2---2----|
D|-0-0-0---0---0--2-2-2---2---2--5-5---5---5--2-2---2---2----|
A|---x-x-0-x-0-x----0-0-0-0-0-0----5-5-5-5-5----0-0-0-0-0----|
E|---x-x---x---x----x-x---x---x----3---3---3----x---x---x----|

First strum Dm, A7, Dm, Gm then Dm, A7, A, Dm, Gm, A


| /  slide up
| \  slide down
| h  hammer-on
| p  pull-off
| ~  vibrato
| +  harmonic
| x  Mute note
==================================================================
Comments