Iron Weasel - Weasel Rock You Chords & Tabs

 

Weasel Rock You Chords & Tabs

Iron Weasel Chords & Tabs

Version: 2 Type: Tab

Weasel Rock You Tab

   
Iron Weasel - Weasel Rock You

first solo:
e|-----15b-----22b--|5 times--> e|22-22-22-20--|
B|------------------|           B|-------------|
G|------------------|           G|-------------|
D|------------------|           D|-------------|
A|------------------|           A|-------------|
E|------------------|           E|-------------|

e|-22>0----13p10------------------------------|
B|----------------13p10-----------------------|
G|--------------------------7---5-------------|
D|---------------------------------7--5----3~-|
A|--------------------------------------------|
E|--------------------------------------------|


Chorus:
e|---------------------------------------------------|
B|---------------------------------------------------|x3
G|---7-5--x-x-x-x----------7-5--x-x-x-x--3-3--7-5----|
D|---7-5--x-x-x-x----------7-5--x-x-x-x--3-3--7-5----|
A|---5-3--x-x-x-x----------5-3--x-x-x-x--1-1--5-3----|
E|----------------1--3--1----------------------------|

e|---------------------------------------------------------------|
B|---------------------------------------------------------------|
G|---7-5--x-x-x-x----------7-5--x-x-x-x--3-3--7-5----------------|
D|---7-5--x-x-x-x----------7-5--x-x-x-x--3-3--7-5----------------|
A|---5-3--x-x-x-x----------5-3--x-x-x-x--1-1--5-3----5h8p5-------|
E|----------------1--3--1-----------------------------------5h8p5|
I'm don't know the other solo,discover...
e|------------------------------------------------|
B|------------------------------------------------|
G|------------------------------------------3-3-4-|
D|------------------------------------------3-3-4-|
A|------------------------------------------1-1-2-|
E|0-0-0-0-0-0-0-0-0-0-0-0-0-0-0-0-0-0-0-0-0-------|
Rockin'out and hangin'out that what i'm all about

e|------------------------------------------------|
B|------------------------------------------------|
G|------------------------------------------3-3-4-|
D|------------------------------------------3-3-4-|
A|------------------------------------------1-1-2-|
E|0-0-0-0-0-0-0-0-0-0-0-0-0-0-0-0-0-0-0-0-0-------|
I'm in the band and we demand you here the weasels shout

e|------------------------------------------------|
B|------------------------------------------------|
G|------------------------------------------3-3-4-|
D|------------------------------------------3-3-4-|
A|------------------------------------------1-1-2-|
E|0-0-0-0-0-0-0-0-0-0-0-0-0-0-0-0-0-0-0-0-0-------|
We blow out amps, 'cause we're the champs at losing all control

e|------------------------------------------------|
B|------------------------------------------------|
G|------------------------------------------3-3-4-|
D|------------------------------------------3-3-4-|
A|------------------------------------------1-1-2-|
E|0-0-0-0-0-0-0-0-0-0-0-0-0-0-0-0-0-0-0-0-0-------|
We crank it loud when there's no crowd because that's how we roll.

e|------------------------------------------------|
B|------------------------------------------------|
G|4--4--4--4--4--4--4--4--4--4--4--4--4--4--4--4--|
D|4--4--4--4--4--4--4--4--4--4--4--4--4--4--4--4--|
A|2--2--2--2--2--2--2--2--2--2--2--2--2--2--2--2--|
E|------------------------------------------------|
Can't stop rockin' with my boys,
can't stop makin' so much noise!

e|---------------------------------------------------|
B|---------------------------------------------------|
G|---7-5--x-x-x-x----------7-5--x-x-x-x--3-3--7-5----|
D|---7-5--x-x-x-x----------7-5--x-x-x-x--3-3--7-5----|
A|---5-3--x-x-x-x----------5-3--x-x-x-x--1-1--5-3----|
E|----------------1--3--1----------------------------|
              Weasel Rock You!
  On stage we're wild and crazy!

realize that the "gh" is linked with "Rock You" and "Shock You"

(realize that the "G|-7-5|" is linked with "Rock You!" and "Shock You!")
                   D|-7-5|
                   A|-5-3|
continuing:


e|---------------------------------------------------|
B|---------------------------------------------------|
G|---7-5--x-x-x-x----------7-5--x-x-x-x--3-3--7-5----|
D|---7-5--x-x-x-x----------7-5--x-x-x-x--3-3--7-5----|
A|---5-3--x-x-x-x----------5-3--x-x-x-x--1-1--5-3----|
E|----------------1--3--1----------------------------|
             Weasel Shock You!
  Back home we're wild and lazy!

e|---------------------------------------------------|
B|---------------------------------------------------|
G|---7-5--x-x-x-x----------7-5--x-x-x-x--3-3--7-5----|
D|---7-5--x-x-x-x----------7-5--x-x-x-x--3-3--7-5----|
A|---5-3--x-x-x-x----------5-3--x-x-x-x--1-1--5-3----|
E|----------------1--3--1----------------------------|
              Weasel Rock You!
 With a heavy metal smack!
[ Tab from: http://www.guitartabs.cc/tabs/i/iron_weasel/weasel_rock_you_tab_ver_2.html ]
e|---------------------------------------------------|
B|---------------------------------------------------|
G|---7-5--x-x-x-x----------7-5--x-x-x-x--3-3--7-5----|
D|---7-5--x-x-x-x----------7-5--x-x-x-x--3-3--7-5----|
A|---5-3--x-x-x-x----------5-3--x-x-x-x--1-1--5-3----|
E|----------------1--3--1----------------------------|
             Weasel Shock You!
 The weasel's comin' back!

then you continue playing the chorus up to this part:

e|------------------------------------------------|
B|------------------------------------------------|
G|------------4~------------5~--------------------|
D|------------4~------------5~--------------------|
A|------------2~------------3~--------------------|
E|------------------------------------------------|
It's hard to make a comeback when we get in our own way!
 YEAHHH!

e|------------------------------------------------|
B|------------------------------------------------|
G|------------4~------------5~--------------------|
D|------------4~------------5~--------------------|
A|------------2~------------3~--------------------|
E|------------------------------------------------|
but we'll keep pushing, trying, plucking 'cause we live to play!
YEAAHH!YEAHHHHHH!

main solo(beginning)
e|-15-15-14-15-15-15-14--15-15-14-14-14-14--16sb--|
B|------------------------------------------------|
G|------------------------------------------------|
D|------------------------------------------------|
A|------------------------------------------------|
E|------------------------------------------------|
 Who knows the full solo repair my tab(I'm really sorry dude)

e|------------------------------------------------|
B|------------------------------------------------|
G|------------------------------------------------|
D|------------------------------------------------|
A|------------------------------------------------|
E|-0-0-0-0-0-0-0-0-0-0-0-0-0-0-0-0-0-0-0-0-0-0-0-0|
  Can't stop rocking', don't know how 
  Nothing's gonna stop us now!


I also don't know the solos of this part

so,you back to the chorus:

e|---------------------------------------------------|
B|---------------------------------------------------|
G|---7-5--x-x-x-x----------7-5--x-x-x-x--3-3--7-5----|
D|---7-5--x-x-x-x----------7-5--x-x-x-x--3-3--7-5----|
A|---5-3--x-x-x-x----------5-3--x-x-x-x--1-1--5-3----|
E|----------------1--3--1----------------------------|
              Weasel Rock You!
  On stage we're wild and crazy!

e|---------------------------------------------------|
B|---------------------------------------------------|
G|---7-5--x-x-x-x----------7-5--x-x-x-x--3-3--7-5----|
D|---7-5--x-x-x-x----------7-5--x-x-x-x--3-3--7-5----|
A|---5-3--x-x-x-x----------5-3--x-x-x-x--1-1--5-3----|
E|----------------1--3--1----------------------------|
             Weasel Shock You!
  Back home we're wild and lazy!

e|---------------------------------------------------|
B|---------------------------------------------------|
G|---7-5--x-x-x-x----------7-5--x-x-x-x--3-3--7-5----|
D|---7-5--x-x-x-x----------7-5--x-x-x-x--3-3--7-5----|
A|---5-3--x-x-x-x----------5-3--x-x-x-x--1-1--5-3----|
E|----------------1--3--1----------------------------|
              Weasel Rock You!
 With a heavy metal smack!

e|---------------------------------------------------|
B|---------------------------------------------------|
G|---7-5--x-x-x-x----------7-5--x-x-x-x--3-3--7-5----|
D|---7-5--x-x-x-x----------7-5--x-x-x-x--3-3--7-5----|
A|---5-3--x-x-x-x----------5-3--x-x-x-x--1-1--5-3----|
E|----------------1--3--1----------------------------|
             Weasel Shock You!
 The weasel's comin' back!


e|---------------------------------------------------|
B|---------------------------------------------------|
G|---7-5--x-x-x-x----------7-5--x-x-x-x--3-3--7-5----|
D|---7-5--x-x-x-x----------7-5--x-x-x-x--3-3--7-5----|
A|---5-3--x-x-x-x----------5-3--x-x-x-x--1-1--5-3----|
E|----------------1--3--1----------------------------|
              Weasel Rock You!
          Weasel will rock youuuu!!

e|---------------------------------------------------|
B|---------------------------------------------------|
G|---7-5--x-x-x-x----------7-5--x-x-x-x--3-3--7-5----|
D|---7-5--x-x-x-x----------7-5--x-x-x-x--3-3--7-5----|
A|---5-3--x-x-x-x----------5-3--x-x-x-x--1-1--5-3----|
E|----------------1--3--1----------------------------|
             Weasel Shock You!
            YAAAAAAAAAY!!!!

e|---------------------------------------------------|
B|---------------------------------------------------|
G|---7-5--x-x-x-x----------7-5--x-x-x-x--3-3--7-5----|
D|---7-5--x-x-x-x----------7-5--x-x-x-x--3-3--7-5----|
A|---5-3--x-x-x-x----------5-3--x-x-x-x--1-1--5-3----|
E|----------------1--3--1----------------------------|
              Weasel Rock You!
          Weasel will rock youuuu!!
e|---------------------------------------------------|
B|---------------------------------------------------|
G|---7-5--x-x-x-x----------7-5--x-x-x-x--3-3--7-5----|
D|---7-5--x-x-x-x----------7-5--x-x-x-x--3-3--7-5----|
A|---5-3--x-x-x-x----------5-3--x-x-x-x--1-1--5-3----|
E|----------------1--3--1----------------------------|
             Weasel Shock You!
 The weasel's comin' back!

Hold onto your head!
 
e|----------|
B|----------|
G|----7-----|
D|----7-----|
A|----5-----|
E|----------|END
So Weasel Rock You!