Iron Maiden - Wrathchild Chords & Tabs

 

Wrathchild Chords & Tabs

Iron Maiden Chords & Tabs

Version: 2 Type: Bass Tab 1 rating
1 star 2 stars 3 stars 4 stars 5 stars
comments

Wrathchild Bass Tab

Tabbed by Lucas

This tab is from Heavy metal basslines-book so its perfect

Wrathchild (Harris)
From the album "Killers"
Intro 4x
|---------------------------------------------------------------|
|---------------------------------------------5-5-4-5-7-5-4-0-.-|
|-5h7-7-7-------5h7-7-7--------5h7-7-7------------------------.-|
|--------0-0-0-0-------0-0-0-0---------0-0-0-0------------------|

Verse 2x
|-------------------------------------------------------------|
|-------------------------------------------5-5-4-5-7-5-4-0-.-|
|-5h7-7-7-7-7-7-5h7-7-7-7-7-7-5h7-7-7-7-7-7-----------------.-|
|-------------------------------------------------------------|

Verse 2
----------------------------------------------------------|
----------------------------------------------------------|
-3-3-3-3-3-3-3-2-2-2-2-2-2-2-5h7-7-7-7-7-7-5h7-7-7-7-7-7--|
----------------------------------------------------------|

----------------------------------------------------------|
----------------------------------------------------------|
-3-3-3-3-3-3-3-2-2-2-2-2-2-2-5h7-7-7-7-7-7-5h7-7-7-7-7-7--|
----------------------------------------------------------|

------------------------------------------------------------------|
-----------------------------5-5-5-5-5-4-4-4-4-4------------------|
-3-3-3-3-3-3-3-2-2-2-2-2-2-2---------------------4-3-3-3-3-3-3-3--|
------------------------------------------------------------------|

----------------|
----------------|
-2-2-2-2-2-2-2--|
----------------|

Bridge 2x
|-------------------------------------------------------------|
|-------------------------------------------5-5-4-5-7-5-4-0-.-|
|-5h7-7-7-7-7-7-5h7-7-7-7-7-7-5h7-7-7-7-7-7-----------------.-|
|-------------------------------------------------------------|

Chorus
-----------------------------------------------------------------------|
---------------------------------------------5-6-7---------------------|
-5h7-7-7-7-7-7--7-5--5--5--5--5h7-7-7-7-7-7-------5---5-5h7-7-7-7-7-7--|
----------------------7--7--------------------------7------------------|
[ Tab from: http://www.guitartabs.cc/tabs/i/iron_maiden/wrathchild_btab_ver_2.html ]
-----------|----------------------------------------------------------|
-----------|----------------------------------------------------------|
-7-5--5--5-|-3-3-3-3--3-3--3-3-5-5-5-5--5-5---5-5--7-5--5--5----------|
----7--7---|--------3-----3------------5----5----------7--7--7-6-5-3--|

Solo
------------------------------------------------7-999997--------|
-------------------------------------------5-7-9---------9-7-5--|
-5h7-7-7-7-7-7-5h7-7-7-7-7-7-5h7-7-7-7-7-7----------------------|
----------------------------------------------------------------|

-------------------------------------------------9-7-------------|
-------------------------------------------5-7-9----9-7-9-7-5-7--|
-5h7-7-7-7-7-7-5h7-7-7-7-7-7-5h7-7-7-7-7-7-----------------------|
-----------------------------------------------------------------|

------------------------------------------------9-7--7-------|
-------------------------------------------5-7-9---9--9-7-5--|
-5h7-7-7-7-7-7-5h7-7-7-7-7-7-5h7-7-7-7-7-7-------------------|
-------------------------------------------------------------|

------------------------------------------------------------|
-------------------------------------------5-5-4-5-7-5-4-0--|
-5h7-7-7-7-7-7-5h7-7-7-7-7-7-5h7-7-7-7-7-7------------------|
------------------------------------------------------------|

--------------------------------------------------------|
--------------------------------------------------------|
-3-3-3-3--3-3-3-3-5-5-5-5--5-5--5-5--7-5--5--5----------|
---------3---3------------5----5---------7--7--7-6-5-3--|

Interlude
|---------------------------|--------------------------|
|.------------------------.-|.--------2----2---------.-|
|.--------5----5----------.-|.-4-4--4---4-4--4-3-2-0-.-|
|--7-7--7---7-7--7-6-5-3-0--|-----------------------2--|
     play this 4 times           two times
|---------------------------|--------------------|
|.-------3-----3----------.-|--------------------|
|.-5-5--5--5--5--5-4-3-1--.-|--7-5--5--5---------|
|-----------------------3---|------7--7--7-6-5-3-|

Reapet These
Bridge 2x
Verse 2x
Verse2
Bridge 2x
Chorus

Ending
-----------------------------------------------------------------------------|
-----------------------------------------------------------------------------|
-3-3-3-3---3-3--3-3-5-5-5-5---5-5---5-5--7-5--5--5---------7-5--5--5---------|
---------3-----3------------5-----5----------7--7--7-6-5-3-----7--7--7-6-5-3-|

-----------------------|
-----------------------|
-7-5--5--5---------7\--|  Enjoy!
-----7--7--7-6-5-3-----|
Comments