Iron Maiden - Wildest Dreams Chords & Tabs

 

Wildest Dreams Chords & Tabs

Iron Maiden Chords & Tabs

Version: 1 Type: Bass Tab 0 ratings
1 star 2 stars 3 stars 4 stars 5 stars
comments

Wildest Dreams Bass Tab

tabbed by Lucas


This should be correct, but solo is not so good, because it was 
really hard to hear, how it goes. If you know how it goes, please e-mail
me(luubass@hotmail.com)

Iron Maiden: Wildest dreams(Harris/Smith)
From album "Dance of Death"

Intro
-9---9-9-9---9--9-4-7---|
-9---9-9-9---9--9-5-7---|
-7---7-7-7---7--7-5-5---|
------------------------|

Verse 4x
-9-------------------9-------------------9-----------------9-4-5---------
-9-------------------9-------------------9-----------------9-5-5---------
-7-7-7-7-7-7-7-7-7-7-7-7-7-7-7-7-7-7-7-7-7-7-7-7-7-7-7-7-7-7-5-5-5-5-5---
-------------------------------------------------------------------------

Verse2 
------------------------------------------------------------|-----------
-----------------------------------------------------------.|-----------
-8-8-8-8-8-8-8-8-8-10-10-10-10-109----10-10-10-10-109------.|-8-8-8-8-8-
-----------------------------------10-----------------10----|-----------
                                          3 times then
-------------------------|
-------------------------|
-8-8-8-8-10-5-7--7-7-7---|
-------------------------|

Chorus 2x
-----------------------------------------------------------------------|
-7-7-7-7-7-7-7-7-7-7-7-7-5--------7-7-7-7-7-7-7-7-7-7-7-7-5------------|
----------------------------55777----------------------------55-3333---|
-----------------------------------------------------------------------|
[ Tab from: http://www.guitartabs.cc/tabs/i/iron_maiden/wildest_dreams_btab.html ]
Then comes again verse(2x),verse2 and chorus(2x)

This comes after chorus 
---------------------------|
-9-7-----------------------|
-----9-7-9-7-9-7-5-3-5-7---|
---------------------------|

Solo 4x (remember, this solo is not very good, but it doesnt sound so bad.
If you know how it goes, tell me about it.)
------------------------------------|
------------------------------------|
-9-9-9-9-9-9-9-9-10-9-7-7-5-5-7-7---|
------------------------------------|

Interlude
-5--7------------5--7-------------------5--7--------------5--7---
-5--7--9--7-6----5--7--9--121212-14-15--5--7--9--19-18----5--7---
-3--5---------7--3--5-------------------3--5-----------19-3--5---
-----------------------------------------------------------------

-----------16-|----------------------------------------|-------------
-181818-19----|.--------------------------------------.|-------------
--------------|.-3--3-3-3-5--5-5-5--7--7-7-7--7-7-7-7-.|-3-3-3-3-3---
--------------|----------------------------------------|-------------

-------------------------------------------------------------|
--------------------------------------------------99999999---|
-5-5-5-5-5-7-7-7-7-7-7-7-7-7--3-3-3-3-3-5-5-5-5-5------------|
-------------------------------------------------------------|

Then comes chorus(4x)

Ending
---------------------------|
-9-7-----------------------|
-----9-7-9-7-9-7-5-3-5-7---| Enjoy!
----------------------->---|
                   (>= accent) Dont let the last note ring!
Comments