Iron Maiden - Wicker Man Chords & Tabs

 

Wicker Man Chords & Tabs

Iron Maiden Chords & Tabs

Version: 1 Type: Tab 0 ratings
1 star 2 stars 3 stars 4 stars 5 stars
comments

Wicker Man Tab

   
Chords used in this song:




Riff 1 (Intro/Verse) Cycle over
e---|--------------------------------|---------------------------------|
B---|--------------------------------|---------------------------------|
G---|--9-----9-----------------------|--9-----9------------------------|
D---|--9-----9-----------------------|--9-----9------------------------|
A---|--7-----7-----------------------|--7-----7------------------------|
E---|--------------------0--0--0--0--|-----------------0--0--0--0------|
                                                                        

                                                                        
e---|--------------------------------|-------------------|
B---|--------------------------------|-------------------|
G---|--9-----9-----------------------|--5--5-----12--12--|
D---|--9-----9-----------------------|--5--5-----12--12--|
A---|--7-----7-----------------------|--3--3-----10--10--|
E---|--------------------0--0--0--0--|-------------------|




Riff 2 (Bridge) cycle over
e---|--------|-----------------------|--------|-------------------------------------|
B---|--------|-----------------------|--------|-------------------------------------|
G---|--7-7---|--7-777-9-5-5-5-12-12--11--9--|--7-7----|-7-777-9-5-5--5--12-12-5-5---|
D---|--7-7---|--5-555-7-3-3-3-12-12--11--9--|--7-7----|-7-777-9-5-5--5--12-12-5-5---|
A---|--5-5---|--3-333-7-3-3-3-10-10--9---7--|--5-5----|-5-555-7-3-3--3--10-10-3-3---|
E---|--------|-----------------------|--------|-------------------------------------|



[ Tab from: http://www.guitartabs.cc/tabs/i/iron_maiden/wicker_man_tab.html ]
Riff 3 (Chorus)
    E5                         C5
e---|--------------------------|--------------------------|
B---|--12--10--12--10--12------|--12--10--12--10--12------|
G---|----------------------12--|----------------------12--|
D---|--------------------------|--------------------------|
A---|--------------------------|--------------------------|
E---|--------------------------|--------------------------|
                                                                        

    G5			       D5                                                                        
e---|--------------------------|--------------------------|
B---|--12--10--12--10--12------|--12--10--12--13--12------|
G---|----------------------12--|----------------------12--|
D---|--------------------------|--------------------------|
A---|--------------------------|--------------------------|
E---|--------------------------|--------------------------|

   
    E5                         G5*
e---|--------------------------|--------------------------|
B---|--12--10--12--10--12------|--12--10--12--10--12------|
G---|----------------------12--|----------------------12--|
D---|--------------------------|--------------------------|
A---|--------------------------|--------------------------|
E---|--------------------------|--------------------------|
                                                                        

    C5                         D5                                                                       
e---|--------------------------|--------------------------|
B---|--12--10--12--10--12------|--12--10--12--13--12------|
G---|----------------------12--|----------------------12--|
D---|--------------------------|--------------------------|
A---|--------------------------|--------------------------|
E---|--------------------------|--------------------------|




Riff 4 (Outro)
e---|--------|--------|--------|--------|
B---|--------|--------|--------|--------|
G---|--9-----|--5-----|--------|--7-----|
D---|--9-----|--5-----|--5-----|--7-----|
A---|--7-----|--3-----|--5-----|--5-----|
E---|--------|--------|--3-----|--------|

edited by chris jo_riff2@hotmail.com
                                                        
Comments