Iron Maiden - Wicker Man Chords & Tabs

 

Wicker Man Chords & Tabs

Iron Maiden Chords & Tabs

Version: 1 Type: Bass Tab 0 ratings
1 star 2 stars 3 stars 4 stars 5 stars
comments

Wicker Man Bass Tab

This is my first tab.  It is accurate for the most part, but some of
it might be a tad off.  I hope to be putting up more very soon.  This
is an easy song yet great!  For some reason it is very fun to play.

H= Hold note          S= Slap

Opening (After guitar)

G)-----------------------------------------------------------------
D)-2-2--rest--2-2--rest--2-2--rest---------------------------------
A)----------------------------------3-3----------------------------
E)--------------------------------------3-3------------------------

Riff 1 (Main riff)

G)-----------------------------------------------------------------
D)-2-2-----------2-2-----------2-2---------------------------------
A)-------------------------------------------3-3-------------------
E)-----0-0-0-0-0-----0-0-0-0-0-----0-0-0-0-0-----3-3---------------

Riff 2 ("You Watch The World Exploding")

G)-----------------------------------------------------------------
D)h0-2--5-5-5-4-2-h0-2---------------------------------------------
A)-----3---------------3--2-2--4-4---------------------------------
E)-----------------------------------------------------------------

Riff 3 (Chorus)

G)-----------------------------------------------------------------
D)--2-2-2-2-2------------------------------------------------------
A)------------3-3-3-3-3-----------0-0-0-0-0------------------------
E)----------------------3-3-3-3-3----------------------------------

Riff 4 (Pre-Solo)
[ Tab from: http://www.guitartabs.cc/tabs/i/iron_maiden/wicker_man_btab.html ]
G)-----------------------------------------------------------------
D)-2-2-2-2-2-2-2-2-2-2-2-2-2-2-0-0-0-0-0-0-0-----------------------
A)-------------------------------------------3-3-3-----------------
E)-------------------------------------------------3-3-3-----------

Riff 5 (Durring Solo)
Play slap

G)-----------------------------------------------------------------
D)-----------------------------------------------------------------
A)-----------------------------------------------------------------
E)-7-7-7-7-7-5-5-5-5-5-3-3-3-3-3-5-5-5-5-5-7-7-7-7-7-5-5-5-5-5-----

G)-----------------------------------------------------------------
D)-----------------------------------------------------------------
A)-----------------------------------------------------------------
E)-3-3-3-3-3-9-9-9-9-9---------------------------------------------

Riff 6 (Whoaooo)

G)-----------------------------------------------------------------
D)-2-2-2-2-2-2-2---------------------------------------------------
A)---------------3-3-3-3-3-3-3-----------------0-0-0-0-0-0-0-0-----
E)-----------------------------3-3-3-3-3-3-3-3---------------------

Playing order
Opening
Riff 1 (Main Riff)- 5x
Riff 2 ("you watch the world exploding")- 2x
Riff 3(chorus)- 4x
Riff 1- 4x
Riff 2- 2x
Riff 3- 4x
Riff 4 (pre-solo)- 2x
Riff 5 (solo)- 2x
Riff 4- 2x
Riff 3- 8x
Riff 6 (Whoaooo)- 4x

Thats it!!  If you detect something wrong with this or just want to
comment email me at MetalMachine87@aol.com
Comments