Iron Maiden - Where Eagles Dare Chords & Tabs

 

Where Eagles Dare Chords & Tabs

Iron Maiden Chords & Tabs

Version: 1 Type: Tab 0 ratings
1 star 2 stars 3 stars 4 stars 5 stars
comments

Where Eagles Dare Tab

#----------------------------------PLEASE NOTE---------------------------------#
#This file is the author's own work and represents their interpretation of the #
#song. You may only use this file for private study, scholarship, or research. #
#------------------------------------------------------------------------------##
#


From wigren@skelleftea.mail.telia.com Wed Jan 29 11:57:03 1997
Date: Fri, 24 Jan 1997 14:17:48 +0100
From: wigren@skelleftea.mail.telia.com
To: guitar@nevada.edu
Subject: Tab WHERE EAGLES DARE by IRON MAIDEN




WHERE EAGLES DARE
Written by Steve Harris.
Performed by IRON MAIDEN.
Taken from the album PIECE OF MIND.

NOTE:
This song was inspired by the
movie with the same name.

Transcribed by Oskar "The Seventh Son" Wigren.
E-mail me at wigren@skelleftea.mail.telia.com

Main-riff:
E--------------|--------------|
B--------------|--------------|
G--------9--9--|--------7--7--|
D--------9--9--|--------7--7--|
A--------7--7--|--------5--5--|
E--0-0-0-------|--0-0-0-------|

E--------------|---------------|
B--------------|---------------|
G--------5--5--|---------------|
D--------5--5--|--5-5-5--------|
A--------3--3--|--3-3-3-3-2-0--|
E--0-0-0-------|---------------|

End of main-riff.

Riff 2:
E---------------------|---------------------|
B---------------------|---------------------|
G---------------------|---------------------|
D--4--------4---------|--5--------5---------|
A--2--2-2-2-2--2-2-2--|--3--3-3-3-3--3-3-3--|
E---------------------|---------------------|

E---------------------|--------------------|
B---------------------|--------------------|
G---------------------|--------------------|
D--4--------4---------|--5--5--5--7--7--7--|
A--2--2-2-2-2--2-2-2--|--3--3--3--5--5--5--|
E---------------------|--------------------|

Verse:
It's snowning-----------------|
E--------------|--------------|
B--------------|--------------|
G--------9--9--|--------7--7--|
D--------9--9--|--------7--7--|
A--------7--7--|--------5--5--|
E--0-0-0-------|--0-0-0-------|


E--------------|---------------|
B--------------|---------------|
G--------5--5--|---------------|
D--------5--5--|--5-5-5--------|
A--------3--3--|--3-3-3-3-2-0--|
E--0-0-0-------|---------------|

...night
E-----------------------|-----------------------|
B-----------------------|-----------------------|
G-----------------------|-----------------------|
D-----------------------|--------------5--4-----|
A--2-2-2-2-2-2-5--7--7--|--2-2-2-2-2-2-3--2--5--|
E--0-0-0-0-0-0-3--5--5--|--0-0-0-0-0-0-------3--|

End of verse

Chorus:
..goes on      
E--------------------------------------|
B--------------------------------------|
G--------------------------------------|
D--5--------5--------5--------5--4--5--|
A--3--3-3-3-3--3-3-3-3--3-3-3-3--2--3--|
E--------------------------------------|

[ Tab from: http://www.guitartabs.cc/tabs/i/iron_maiden/where_eagles_dare_tab.html ]
E--------------------------------------|
B--------------------------------------|
G--------------------------------------|
D--7--------7--------7--------4--5--7--|
A--5--5-5-5-5--5-5-5-5--5-5-5-2--3--5--|
E--------------------------------------|


E--------------------------------------|
B--------------------------------------|
G--------------------------------------|
D--5--------5--------5--------5--4--5--|
A--3--3-3-3-3--3-3-3-3--3-3-3-3--2--3--|
E--------------------------------------|


E------------------------------|
B------------------------------|
G------------------------------|
D--7--------7--------4---5--7--|
A--5--5-5-5-5--5-5-5-2---3--5--|
E------------------------------|

End of chorus.

Riff 3:
E---------------------------------------|
B---------------------------------------|
G--9-9-9-9-----------9-9-9-7-7-7-7-7-7--|
D--9-9-9-9-----------9-9-9-7-7-7-7-7-7--|
A--7-7-7-7-----------7-7-7-5-5-5-5-5-5--|
E-----------0-0-0-0-0-------------------|

E---------------------------------------|
B---------------------------------------|
G--9-9-9-9-----------9-9-9-7-7-7-9-9-9--|
D--9-9-9-9-----------9-9-9-7-7-7-9-9-9--|
A--7-7-7-7-----------7-7-7-5-5-5-7-7-7--|
E-----------0-0-0-0-0-------------------|

E----------------------------------------|
B----------------------------------------|
G--7-7-7-7------------7-7-7-4-4-4-7-7-7--|
D--7-7-7-7------------7-7-7-4-4-4-7-7-7--|
A--5-5-5-5------------5-5-5-2-2-2-5-5-5--|
E-----------0-0-0-0-0--------------------|

E---------------------------------------|
B---------------------------------------|
G--9-9-9-9-----------9-9-9-7-7-7-7-7-7--|
D--9-9-9-9-----------9-9-9-7-7-7-7-7-7--|
A--7-7-7-7-----------7-7-7-5-5-5-5-5-5--|
E-----------0-0-0-0-0-------------------|

End of riff 3.

Solo-riff:
E----------------------|----------------------|
B----------------------|----------------------|
G----------------------|----------------------|
D--2-------------------|--5-------------------|
A--2-------------------|--5-------------------|
E--0-------------------|--3-------------------|

Riff 4:
E-------------------------------------------|
B-------------------------------------------|
G-------------------------------------------|
D-------------------------------------------|
A-------------------------------------------|
E--0--0-3-0-0-0--0-3-0-0-0--0-3-0-0-5--0-3--|

Riff 5:
E------------------------------------------------|
B------------------------------------------------|
G------------------------------------------------|
D-----------------------------------------2------|
A-----------------------------------0-2-4---4-2--|
E--2--2-5-2-2-2--2-5-2-2-2--2-5-2-2--------------|

Song-structure:
Drum-intro
Riff 1 (4 times)
Riff 2
Riff 1 (2 times)
Verse (2 times)
Chorus
Verse (2 times)
Chorus
Riff 3 (4 times)
Solo-riff (10 times
Riff 4 (4 times)
Riff 5 (2 times)
Riff 4 (2 times)
Riff 3 (4 times)
Riff 1 (4 times)
Riff 2
Verse (2 times)
Chorus
Verse (2 times)
Chorus
Riff 1 (4 times)
Riff 2
END
Comments