Iron Maiden - Where Eagles Dare Chords & Tabs

 

Where Eagles Dare Chords & Tabs

Iron Maiden Chords & Tabs

Version: 1 Type: Bass Tab 0 ratings
1 star 2 stars 3 stars 4 stars 5 stars
comments

Where Eagles Dare Bass Tab

                                         _
|  |>    /\   |\|     |\/|   /|  |  |\  |_  |\|
|  | \  /__\  | |     |  |   \|  |  |/  |_  | |

Bass tab 
Transcribed by G. Crisan ( crisan@shadow.net )

All textual notes refer to the tab ABOVE it. Any comments, suggestions, 
or errors refering to the tab below that should be brought to my attention, 
please e-mail me.

Tab explanations
-----------------------------------------------------
>   Accent                 |      /   Slide up
.   Staccatto              |      \   Slide down
h   Hammer-on/ pull off    |      :      Harmonic               |      ~   slight bend 
-----------------------------------------------------


Where Eagles Dare ( Harris )
 ( From the album "Piece of Mind")      
 

-------------|---------------------------------------------------------------
-------------|.--------------------------------------------------------------
----------7\-|.--------7--7---------5--5----------3-3-3-3-2--------------7--7
-------------|--0-0-0--------0-0-0---------0-0-0-------------3----0-0-0------
 Drum Intro


-------------------------------------|---------------------------------------
------------------------------------.|---------------------------------------
--------5--5----------3-3-3-3-2-----.|--2--2--2-2-2--2--2-2--3--3--3-3-3--3--
-0-0-0---------0-0-0-------------3---|---------------------------------------

-----------------------------------------------------------------------------
--------------------------->->->-->->->--------------------------------------
-3-3--2--2--2-2-2--2--2-2--3-3-3--5-5-5--------------7--7----------5--5------
----------------------------------------------0-0-0---------0-0-0-------0-0-0

-----------------------------------------------------------------------------
-----------------------------------------------------------------------------
--3-3-3-3-2--------------7--7---------5--5---------3-3-3-3-2----------7--7---
-------------3----0-0-0--------0-0-0--------0-0-0------------3--0-0-0--------

-----------------------------------------------------------------------------
-----------------------------------------------------------------------------
--------5--5---------3-3-3-3-2--------------------.-->->---------------3-2---
-0-0-0--------0-0-0-------------3----0-0-0-0-0-0--3--5-5--0-0-0-0-0-0------3-

-----------------------------------------------------------------------------
-----------------------------------------------------------------------------
--------7--7---------5--5---------3-3-3-3-2-------------------.-->->---------
-0-0-0--------0-0-0--------0-0-0------------3----0-0-0-0-0-0--3--5-5--0-0-0--

-----------------------------------------------------------------------------
-----------------------------------------------------------2-----------------
--------3-2-----2--2-2-2-2--2--2-2-2-2--2--2-2-2-2---3--5-----5--5-5-5-5--5--
-0-0-0------3----------------------------------------------------------------

-----------------------------------------------------------------------------
-------------------------------------------------------------------------2---
-5-5-5-5--5--5-5-5-5--2--3--5--3--3-3-3-3--3--3-3-3-3--3--3-3-3-3--3--5------
-----------------------------------------------------------------------------

-----------------------------------------------------------------------------
---------------------------------------------------->-->---------------------
--5--5-5-5-5--5--5-5-5-5---2--2-2-2-2--2--2-2-2-2---3--5------------7--7-----
-------------------------------------------------------------0-0-0--------0--

-----------------------------------------------------------------------------
-----------------------------------------------------------------------------
-------5--5----------3-3-3-3-2-------------------.-->->----------------3-2---
--0-0---------0-0-0-------------3---0-0-0-0-0-0--3--5-5---0-0-0-0-0-0------3-

-----------------------------------------------------------------------------
-----------------------------------------------------------------------------
--------7--7---------5--5--------3-3-3-3-2------------------.-->->-----------
-0-0-0--------0-0-0--------0-0-0-----------3---0-0-0-0-0-0--3--5-5--0-0-0-0-0

-----------------------------------------------------------------------------
-----------------------------------------------------2-----------------------
----3-2----2--2-2-2-2--2--2-2-2-2--2--2-2-2-2---3--5-----5--5-5-5-5--5---5-5-
-0------3--------------------------------------------------------------------

-----------------------------------------------------------------------------
-----------------------------------------------------------------------------
--5-5--5---5--5-5-5-5---2--2-2-2-2--2--2-2-2-2---3--5---7-7-7-7\-------------
------------------------------------------------------------------0-0-0-0-0--

-----------------------------------------------------------------------------
-----------------------------------------------------------------------------
-7-7-7-7--5-5-5-5-5-5--7-7-7-7\-------------7-7-7-7--5-5-5-7-7-7--5-5-5-5\---
---------------------------------0-0-0-0-0-----------------------------------

-----------------------------------------------------------------------------
-----------------------------------------------------------------------------
-------------5-5-5-5---------5-5-5--7-7-7-7\-------------7-7-7-7--5-5-5-5-5-5
--0-0-0-0-0-----------7-7-7-------------------0-0-0-0-0----------------------

-----------------------------------------------------------------------------
-----------------------------------------------------------------------------
-7-7-7-7\-------------7-7-7-7--5-5-5-5-5-5--7-7-7-7\-------------7-7-7-7--5-5
-----------0-0-0-0-0----------------------------------0-0-0-0-0--------------

-----------------------------------------------------------------------------
-----------------------------------------------------------------------------
-5-7-7-7---5-5-5-5\-------------5-5-5-5---------5-5-5--7-7-7-7\--------------
---------------------0-0-0-0-0-----------7-7-7--------------------0-0-0-0-0--

-----------------------------------------------------------------------------
-----------------------------------------------------------------------------
-7-7-7-7--5-5-5-5-5-5---7-7-7-7\--------------7-7-7-7--5-5-5-5-5-5--7-7-7-7\-
-----------------------------------0-0-0-0-0---------------------------------
                        Guitar 2 
                        harmonizes


-----------------------------------------------------------------------------
-----------------------------------------------------------------------------
------------7-7-7-7--5-5-5-7-7-7--5-5-5-5\-------------0-5-5-5---------5-5-5-
-0-0-0-0-0----------------------------------0-0-0-0-0-----------7-7-7--------

-----------------------------------------------------------------------------
-----------------------------------------------------------------------------
-7-7-7-7\-------------7-7-7-7--5-5-5-5-5-5--7-7-7-7\--------------7-7-7-7----
-----------0-0-0-0-0-----------------------------------0-0-0-0-0-------------

-----------------------------------------------------------------------------
-----------------------------------------------------------------------------
-5-5-5-5-5-5--7-7-7-7\-------------7-7-7--5-5-5-7-7-7--5-5-5-5\--------------
------------------------0-0-0-0-0--------------------------------0-0-0-0-0---

-----------------------------------------------------------------------------
-----------------------------------------------------------------------------
-5-5-5-5---------5-5-5--7-7-7-7\-------------0-7-7-7--5-5-5-5\--.----------.-
----------7-7-7-------------------0-0-0-0-0---------------------0--0-0-0-0-0-
                                                                Solo part
                                                                         

-----------------------------------------------------------------------------
-----------------------------------------------------------------------------
---------.-----------.--->-->----------.----------.----------.--->--.--------
-0-0-0-0-0---0-0-0-0-0---0--3--3-3-3-3-3--3-3-3-3-3--3-3-3-3-3---3--0--0-0-0-
     
-----------------------------------------------------------------------------
-----------------------------------------------------------------------------
---.-----------.----------.--->-->----------.----------->-->-->-->-->-->-----
-0-0---0-0-0-0-0--0-0-0-0-0---0--3--3-3-3-3-3---333--0--3--3--3--3--3--3-----

-----------------------------------------------------------------------------
-----------------------------------------------------------------------------
-.----------.----------.-----------.--->-->----------.----------.----------.-
-0--0-0-0-0-0--0-0-0-0-0---0-0-0-0-0---0--3--3-3-3-3-3--3-3-3-3-3--3-3-3-3-3-

-----------------------------------------------------------------------------
-----------------------------------------------------------------------------
->--.----------.----------.----------.--->-->----------.-----------.---------
-3--0--0-0-0-0-0--0-0-0-0-0--0-0-0-0-0---0--3--3-3-3-3-3---3-3-3-3-3--3-3-3-3

-----------------------------------------------------------------------------
-----------------------------------------------------------------------------
-.----------------.-----------.-----------.------>----------.----------.-----
-3--5--0--0-0-0-0-0---0-0-0-0-0---0-0-0-0-0---0--3--3-3-3-3-3--3-3-3-3-3--3-3

-----------------------------------------------------------------------------
-----------------------------------------------------------------------------
-----.--->-->-----------.----------.----------.--->-->----------.----------.-
-3-3-3---3--0---0-0-0-0-0--0-0-0-0-0--0-0-0-0-0---0--3--3-3-3-3-3--3-3-3-3-3-

-----------------------------------------------------------------------------
-----------------------------------------------------------------------------
---------.--->-->----------.----------.----------.-->-->----------.----------
-3-3-3-3-3---3--0--0-0-0-0-0--0-0-0-0-0--0-0-0-0-0--0--3--3-3-3-3-3--3-3-3-3-
                Dual Guitar       
                

-----------------------------------------------------------------------------
-----------------------------------------------------------------------------
-.----------.-->-->----------.----------.----------.-->-->----------.--------
-3--3-3-3-3-3--3--0--0-0-0-0-0--0-0-0-0-0--0-0-0-0-0--0--3--3-3-3-3-3--3-3-3- 

----------------------------9-9--9-9-9--9-9-9--9-9-9--9-9-9--9-9-9--9-9------
-----------------------------------------------------------------------------
---.----------.-----.-----7--------------------------------------------------
-3-3--3-3-3-3-3--3--0---0-----------------------------------------------10--0

-12-12-12--12-12-12--12-12-12--12-12-12--12-12-12--12-12-12--12-12--------9-9
-----------------------------------------------------------------------------
------------------------------------------------------------------------7----
--------------------------------------------------------------------0--0-----
[ Tab from: http://www.guitartabs.cc/tabs/i/iron_maiden/where_eagles_dare_btab.html ]
-9-9-9--9-9-9--9-9-9--9-9-9--9-9-9--9-9-----------12-12--12-12-12--12-12-12--
-----------------------------------------------------------------------------
----------------------------------------------10-----------------------------
----------------------------------------10--0--------------------------------

-14-14-14--14-14-14--14-14-14--14\-------------------------------------------
--------------------------------------.--.--5------.-----5------.-----5------
--------------------------------------7--7-----7-7-7--7-----7-7-7--7-----7-7-
-----------------------------------------------------------------------------

---------->------------------------------------------------------->-------->-
--7-------5--.---.---5------.-------5------.------5-------7-------5--.--.--5-
-----7-7-----7---7------7-7-7---7------7-7-7---7-----7-7-----7-7-----7--7----
-----------------------------------------------------------------------------

----------------------------------------->-----------------------------------
------.-----5------.-----5-------7-------5--.--.--5------.------5------.-----
--7-7-7--7-----7-7-7--7-----7-7-----7-7-----7--7-----7-7-7---7-----7-7-7--7--
-----------------------------------------------------------------------------

------------------>--------------------------------------------------------11
--5-------7-------5--.--.----------.-------------.----------------------11--- 
-----7-7-----7-7-----9--9--12--9-9-9--9--12--9-9-9--9--12--9-9--12--14-------
-----------------------------------------------------------------------------

-------------------------------------------------------------------11--------
--11--------.--.----------.-------------.----------------------11------11----
------14----9--9--12--9-9-9--9--12--9-9-9--9--12--9-9--12--14--------------14
-----------------------------------------------------------------------------

------------------------------------------------------>----------------------
--.--.--5------.------5------.-------5--------7-------5--.---.--5-----.------
--7--7-----7-7-7---7-----7-7-7---7-------7-7-----7-7-----7---7----7-7-7--7---
-----------------------------------------------------------------------------

------------------------------>----------------------------------------------
-5-----.-----5-------7--------5----------------------------------------------
---7-7-7--7-----7-7-----7-7---------7-7-7-7\----------.---7-7-7-7--5-5-5-5-5-
----------------------------------------------0-0-0-0-0----------------------


-----------------------------------------------------------------------------
-----------------------------------------------------------------------------
--5--7-7-7-7\-----------.---7-7-7-7--5-5-5-7-7-7--5-5-5-5\----------.--5-5-5-
----------------0-0-0-0-0-----------------------------------0-0-0-0-0--------

-----------------------------------------------------------------------------
-----------------------------------------------------------------------------
--5---------5-5-5--7-7-7-7\-----------.---7-7-7-7--5-5-5-5-5-5--7-7-7-7\-----
-----7-7-7--------------------0-0-0-0-0--------------------------------------

-----------------------------------------------------------------------------
-----------------------------------------------------------------------------
----------.---7-7-7-7--5-5-5-5-5-5--7-7-7-7\-------------7-7-7-7--5-5-5-7-7-7
--0-0-0-0-0-----------------------------------0-0-0-0-0----------------------

-----------------------------------------------------------------------------
-----------------------------------------------------------------------------
--5-5-5-5\-----------.---5-5-5-5---------5-5-5--7-7-7-7\----------.---7-7-7-7
-------------0-0-0-0-0------------7-7-7-------------------0-0-0-0-0----------

-----------------------------------------------------------------------------
-----------------------------------------------------------------------------
--5-5-5-5-5-5--7-7-7-7\----------.--7-7-7-7--5-5-5-5-5-5--7-7-7-7\----------.
-------------------------0-0-0-0-0----------------------------------0-0-0-0-0
               Guitar 2 
              doubles up


-----------------------------------------------------------------------------
-----------------------------------------------------------------------------
--7-7-7-7--5-5-5-7-7-7--5-5-5-5\----------.---5-5-5-5---------5-5-5--7-7-7-7\
----------------------------------0-0-0-0-0------------7-7-7-----------------

-----------------------------------------------------------------------------
-----------------------------------------------------------------------------
---------.---7-7-7-7--5-5-5-5-5-5--7-7-7-7\----------.--7-7-7-7--5-5-5-5-5-5-
-0-0-0-0-0-----------------------------------0-0-0-0-0-----------------------
                                   Guitar 1
                                    enters


-----------------------------------------------------------------------------
-----------------------------------------------------------------------------
--7-7-7-7\----------.---7-7-7-7--5-5-5-7-7-7--5-5-5-5\----------.---5-5-5-5--
------------0-0-0-0-0-----------------------------------0-0-0-0-0------------

-----------------------------------------------------------------------------
-----------------------------------------------------------------------------
---------5-5-5--7-7-7-7\----------.---7-7-7-7--5-5-5-5\----------7--7--------
--7-7-7-------------------0-0-0-0-0-----------------------0-0-0---------0-0-0

-----------------------------------------------------------------------------
-----------------------------------------------------------------------------
--5--5-----------3-3-3-3-2------------7---7----------5--5----------3-3-3-3-2-
---------0-0-0-------------3---0-0-0----------0-0-0---------0-0-0------------

-----------------------------------------------------------------------------
-----------------------------------------------------------------------------
------------7--7----------5--5-----------3-3-3-3-2------------7--7---------5-
-3---0-0-0---------0-0-0---------0-0-0-------------3---0-0-0--------0-0-0----

-----------------------------------------------------------------------------
-----------------------------------------------------------------------------
-5---------3-3-3-3-2-----2--2--2-2-2--2--2-2--3--3--3-3-3--3-3-3--2--2--2-2-2
----0-0-0------------3-------------------------------------------------------

-----------------------------------------------------------------------------
---------->->->-->->->-------------------------------------------------------
--2--2-2--3-3-3--5-5-5----------7--7----------5--5----------3-3-3-3-2--------
-------------------------0-0-0---------0-0-0---------0-0-0------------3---0-0

-----------------------------------------------------------------------------
-----------------------------------------------------------------------------
----------.-->->-----------------3--2-------------7--7---------5--5----------
-0-0-0-0--3--5-5---0-0-0-0-0-0---------3---0-0-0---------0-0-0-------0-0-0---

-----------------------------------------------------------------------------
-----------------------------------------------------------------------------
--3-3-3-3-2-------------------.-->->---------------3--2-----2--2-2-2-2--2--2-
-------------3---0-0-0-0-0-0--3--5-5--0-0-0-0-0-0--------3-------------------

-----------------------------------------------------------------------------
----------------------------2------------------------------------------------
--2-2-2--2--2-2-2-2---3--5-----5--5-5-5-5--5-5-5-5-5--5--5-5-5-5--2--3--5--3-
-----------------------------------------------------------------------------

-----------------------------------------------------------------------------
----------------------------------------2------------------------------------
-3-3-3-3--3--3-3-3-3--3--3-3-3-3--3--5-----5--5-5-5-5--5--5-5-5-5--2--2-2-2-2
-----------------------------------------------------------------------------

-----------------------------------------------------------------------------
--------------->-->----------------------------------------------------------
--2--2-2-2-2---3--5-----------7--7----------5--5----------3-3-3-3-2----------
-----------------------0-0-0---------0-0-0---------0-0-0------------3---0-0-0

-----------------------------------------------------------------------------
-----------------------------------------------------------------------------
--------.-->->---------------3-2-------------7--7----------5--5----------3-3-
-0-0-0--3--5-5--0-0-0-0-0-0-------3---0-0-0---------0-0-0---------0-0-0------

-----------------------------------------------------------------------------
-----------------------------------------------------------------------------
-3-3-2--------------------.-->->---------------3-2-------2--2-2-2-2--2--2----
--------3---0-0-0-0-0-0---3--5-5--0-0-0-0-0-0-------3------------------------

-----------------------------------------------------------------------------
----------------------------2------------------------------------------------
--2-2-2--2--2-2-2-2---3--5-----5--5-5-5-5--5-5-5-5-5--5--5-5-5-5--2--3--5--3-
-----------------------------------------------------------------------------

-----------------------------------------------------------------------------
----------------------------------------2------------------------------------
-3-3-3-3--3--3-3-3-3--3--3-3-3-3--3--5-----5--5-5-5-5--5--5-5-5-5--2--2-2-2-2
-----------------------------------------------------------------------------

-----------------------------------------------------------------------------
--------------->-->----------------------------------------------------------
--2--2-2-2-2---3--5-----------7--7----------5--5----------3-3-3-3-2----------
-----------------------0-0-0---------0-0-0---------0-0-0------------3---0-0-0

-----------------------------------------------------------------------------
-----------------------------------------------------------------------------
--7--7-----------5--5-----------3-3-3-3-2--------------7--7---------5--5-----
---------0-0-0----------0-0-0--------------3----0-0-0---------0-0-0-------0--
    
-----------------------------------------------------------------------------
-----------------------------------------------------------------------------
-------3-3-3-3-2-------------7--7-----------5--5----------3-3-3-3-2----------
--0-0-------------3---0-0-0---------0-0-0----------0-0-0------------3--------

-----------------------------------------------------------------------------
---------------------------------------------------------------->->->-->->->-
--2--2--2-2-2--2--2-2--3--3--3-3-3--3-3-3--2--2--2-2-2--2--2-2--3-3-3--5-5-5-
-----------------------------------------------------------------------------
                                                             Ritard.    
                                                            
--------------------9999999---97----97---97----------------------------------
---------------999---------------9-----9----9--9--7--------------------------
--777-7-7-7777----------------------------------------9---7------------------
-------------------------------------------------------------9--7---00000000-

----------------------------------------------||
----------------------------------------------||
--------------------------------------7-7-7-7\||
-0000000000000000000000000000000--------------||
                  Wait for Drum cue


Repeat


Comments