Iron Maiden - Wasted Years Chords & Tabs

 

Wasted Years Chords & Tabs

Iron Maiden Chords & Tabs

Version: 5 Type: Tab 0 ratings
1 star 2 stars 3 stars 4 stars 5 stars
comments

Wasted Years Tab

   
BAnd- Iron Maiden
Song- Wasted Years

Gtr I (E A D G B E) - 'Adrian Smith - dist electric'
Gtr II (E A D G B E) - 'Dave Murray - dist electric'

Intro
    Q=152
   4/4
    Gtr I
     E S S S S E S S S S E S S    S  S E S S S S S S S S S S S S
||--12-0-0-0-0-7-0-0-0-0-8-0-0-|--0--0-5-0-0-0-0-7-0-0-0-3-0-0-0-|
||o----------------------------|---------------------------------|
||-----------------------------|---------------------------------|
||-----------------------------|---------------------------------|
||o----------------------------|---------------------------------|
||-----------------------------|---------------------------------|
|- Riff 1
|
|   Gtr II
|    W                           +W
||-----------------------------|---------------------------------|
||o----------------------------|---------------------------------|
||-----------------------------|---------------------------------|
||-----------------------------|---------------------------------|
||o----------------------------|---------------------------------|
||---0-------------------------|-(0)-----------------------------|


  E S S S S E S S S S E S S    S  S E S S S S E S S  S  S S S   3x
|-5-0-0-0-0-2-0-0-0-0-3-0-0-|--0--0-5-0-0-0-0-2-0-0--3--0-0-0---||
|---------------------------|----------------------------------o||
|---------------------------|-----------------------------------||
|---------------------------|-----------------------------------||
|---------------------------|----------------------------------o||
|---------------------------|-----------------------------------||
|                                                    end Riff 1-|
|
| W                           +H.                   +Q          3x
|---------------------------|-----------------------------------||
|---------------------------|----------------------------------o||
|---------------------------|-----------------------------------||
|---------------------------|-----------------------------------||
|---------------------------|----------------------------------o||
|-0-------------------------|-(0)-------------------(0)---------||


w/Riff 1 (1st 2 bars)
  +W                            +W
|-----------------------------|---------------------------------|
|-----------------------------|---------------------------------|
|-----------------------------|---------------------------------|
|-----------------------------|---------------------------------|
|-----------------------------|---------------------------------|
|-(0)-------------------------|-(0)-----------------------------|


                                    \2____________/
   S  S S S S S S S S S S S S S E   W            +W
|--5--0-0-0-0-0-2-0-0-0-0-0-0-0-3-|-2----------|-(2)----||
|---------------------------------|------------|--------||
|---------------------------------|------------|--------||
|---------------------------------|------------|--------||
|---------------------------------|------------|--------||
|---------------------------------|------------|--------||
|
| +H.                       Q       W            +W
|---------------------------2-----|-2----------|-(2)----||
|---------------------------3-----|-3----------|-(3)----||
|---------------------------2-----|-2----------|-(2)----||
|---------------------------0-----|-0----------|-(0)----||
|---------------------------------|------------|--------||
|-(0)-----------------------------|------------|--------||


 Verse
  $
  Gtrs I, II
  E E E E E E E E   E E E E E E  E  E    E E E E E E E E   E E E E E E E E
|-----------------|-------------------|------------------|-----------------|
|-----------------|-------------------|--------7-----7---|---7-----7-7-7-7-|
|-7S9---9-----9---|---9-----9-9S12-12-|-12S7---7-----7---|---7-----7-7-7-7-|
|-7S9---9-----9---|---9-----9-9S12-12-|-12S7---7-----7---|---7-----7-7-7-7-|
|-5S7---7-----7---|---7-----7-7S10-10-|-10S5-5-5-5-5---5-|-5---x-5-5-5-5-5-|
|-----0---0-0---0-|-0---0-0-----------|------------------|-----------------|


  E E E E E E E E   E E E E E E  E  E
|-----------------|-------------------|
|-----------------|-------------------|
|-7S9---9-----9---|---9-----9-9S12-12-|
|-7S9---9-----9---|---9-----9-9S12-12-|
|-5S7---7-----7---|---7-----7-7S10-10-|
|-----0---0-0---0-|-0---0-0-----------|


   E  E E  E  +E  E  E  E    +E   Q   E  E  E  E  E
|-------------------------|-------------------------|
|-------------------------|-------------------------|
|-------------------------|------12--------12-12-12-|
|-12S11---11-(11)---12-12-|-(12)-12--12-12-12-12-12-|
|-10S=9-9--9--(9)-9--9--9-|--(9)-10-----10-10-10-10-|
|-------------------------|-------------------------|


   E E E E +E  E Q    E E E E E E E E   E E E E E E E E
|-------------------|-----------------|-----------------|
|--------0-(0)---0--|-0-0-0-0-0-------|-----------------|
|-12-----0-(0)---5--|-0-0-0-0-0-------|-----------------|
|-12S5---5-(5)---5--|-5-5-5-5-5-4-4-4-|-4-5---9-----9---|
|-10S3-3-3-(3)-3-3--|-3-3-3-3-3-5-5-5-|-5-7---7-----7---|
|-------------------|-----------------|-----0---0-0---0-|


  E E E E E  E  E  E    E E E E E E E E   E E E E E  E  E  E    Q  E E E E Q
|--------------------|------------------|--------------------|-----0----------|
|--------------------|--------7-----7---|---7----------------|-----0-0-----0--|
|---------9S12-12-12-|-12S7-7-7-----7---|---7-----7S12-12-12-|-12S=0-0-----0--|
|---9-----9S12-12-12-|-12S7-7-7-----7---|---7-7-7-7S12-12-12-|-12S=5-5-----5--|
|---7-----7S10-10-10-|-10S5-5---5-5---5-|-5---5-5-5S10-10-10-|-10S=3-3---3-3--|
|-0---0-0------------|------------------|--------------------|----------------|


  +H     +E  E E E   E E E E E E E E   E E E E E  E  Q     E E E E E E E E
|------------------|-----------------|------------------|------------------|
|-(0)----(0)-------|-------8---------|------------------|------------------|
|-(0)----(0)-------|-------9---------|---9-----9S12-12--|--------7-----7---|
|-(5)----(5)-4-4-4-|-4-5---9-----9---|---9-----9S12-12--|-12S7-7-7-----7---|
|-(3)----(3)-5-5-5-|-5-7---7-----7---|---7-----7S10-10--|-10S5-5-5-5-5---5-|
|------------------|-----0---0-0---0-|-0---0-0----------|------------------|


  E E E E E E E E   E E E E E E E E   E E E E E  E  E  E    E E  E  E E E Q
|-----------------|-----------------|--------------------|-------------------|
|---7-----7-7-7-7-|-----------------|--------------------|-------------------|
|---7-----7-7-7-7-|-7S9---9-----9---|---9-----9S12-12-12-|----------------9--|
|---7-----7-7-7-7-|-7S9---9-----9---|---9-----9S12-12-12-|-12---12-12-----9--|
|-5---5-5-5-5-5-5-|-5S7---7-----7---|---7-----7S10-10-10-|-10S9--9--9-7h9-7--|
|-----------------|-----0---0-0---0-|-0---0-0------------|-------------------|


  +E   E  E  E  E  E  E  E    Q  Q  E E Q
|--------------------------|---------------|
|--------------------------|-----0------0--|
|-(9)-12-12----12-12-12-12-|-12--0------0--|
|-(9)-12----12-12-12-12-12-|-12--5--5---5--|
|-(7)-10-------10-10-10-10-|-10--3----3-3--|
|--------------------------|---------------|


  +E  Q  E +E  E E E   E E E E E E E E
|--------------------|-----------------|
|-(0)-0--0-(0)-------|-----------------|
|-(0)-0--0-(0)-------|-------9-----9---|
|-(5)-5--5-(5)-4-4-4-|-4-5---9-----9---|
|-(3)----------5-5-5-|-5-7---7-----7---|
|--------------------|-----0---0-0---0-|


                                                     To Coda
  E E E E E  E  E  E    Q  E E E E E E   E E E E E  E  E  E    Q  E E E E Q
|--------------------|-----------------|--------------------|-----0----------|
|--------------------|-------7---------|---7----------------|-----0-0-0---0--|
|---9-----9S12-12-12-|-12----7-----7---|---7-----7S12-12-12-|-12S=0-0-0---0--|
|---9-----9S12-12-12-|-12S=7-7-7---7---|-7-7-7-7-7S12-12-12-|-12S=5-5-5---5--|
|---7-----7S10-10-10-|-10S=5---5-5-5-5-|-5---5-5-5S10-10-10-|-10S=3-3-3-3-3--|
|-0---0-0------------|-----------------|--------------------|----------------|


                    Chorus
                 $$
  +E  E E E H        Q.   E +E  E Q    H    H      Q.   E Q.   E
|----------------||--3----3-(3)-3-3--|-----------|-2----2-2------|
|-(0)-3-3-3-3----||o-3----3-(3)-3-3--|------2----|-3----3-3------|
|-(0)-0-0-0-0----||--0----0-(0)-0-0--|-5----2----|-2----2-2----5-|
|-(5)-5-5-5-5----||--0----0-(0)-0-0--|-5----2----|-0----0-0----5-|
|-(3)-3-3-3-3----||o-----------------|-3----0----|-------------3-|
|----------------||--3----3-(3)-3-3--|-----------|---------------|


  Q.   S S H      H.      Q    W          E E E E E E E E
|---------------|---------2--|-2--------|-3-3-3-3-3-3-3-3-|
|------2-2-2----|---------3--|-3--------|-3-3-3-3-3-3-3-3-|
|-5----2-2-2----|---------2--|-2--------|-0-0-0-0-0-0-0-0-|
|-5----2-2-2----|-2-------0--|-0--------|-----------------|
|-3----0-0-0----|-2----------|----------|-3-3-3-3-3-3-3-3-|
|---------------|-0----------|----------|-----------------|


  E E E E E E Q     Q.   E +E  E Q    Q.   S S Q.   S S   Q.   E E E E S S
|-3-3-3-3-3-3-3\--|-3----3-(3)-3-3--|-------------------|-2----2-2-2-2------|
|-3-3-3-3-3-3-3\--|-3----3-(3)-3-3--|-------------------|-3----3-3-3-3------|
|-0-0-0-0-0-0-0\--|-0----0-(0)-0-0--|-5----2-2-2--------|-2----2-2-2-2------|
|-----------------|-0----0-(0)-0-0--|-5----2-2-2--------|-0----0-0-0-0-5-5--|
|-3-3-3-3-3-3-3\--|-----------------|-3----0-0-0----x-x-|--------------3-3--|
|-----------------|-3----3-(3)-3-3--|-------------------|-------------------|


  Q.   S S H      H.      Q    W
|---------------|---------2--|-2--------|
|------2-2-2----|---------3--|-3--------|
|-5----2-2-2----|---------2--|-2--------|
|-5----2-2-2----|-2-------0--|-0--------|
|-3----0-0-0----|-2----------|----------|
|---------------|-0----------|----------|


                                     D.S. al Coda (after repeat)
                                     to double Coda (after repeat)
  E E E E E E E E   E E E E E E E E
|-3-3-3-3-3-3-3-3-|-3-3-3-3-3----------||
|-3-3-3-3-3-3-3-3-|-3-3-3-3-3---------o||
|-0-0-0-0-0-0-0-0-|-0-0-0-0-0-7-7-7----||
|-----------------|-----------7-7-7----||
|-3-3-3-3-3-3-3-3-|-3-3-3-3-3-5-5-5---o||
|-----------------|--------------------||


  &
  Q.   E +E  E Q    H    H      Q.   E Q.   E   Q.   S S H      H.      Q
|-3----3-(3)-3-3--|-----------|-2----2-2------|---------------|---------2----|
|-3----3-(3)-3-3--|------2----|-3----3-3------|------2-2-2----|---------3----|
|-0----0-(0)-0-0--|-5----2----|-2----2-2----5-|-5----2-2-2----|---------2----|
|-0----0-(0)-0-0--|-5----2----|-0----0-0----5-|-5----2-2-2----|-2-------0----|
|-----------------|-3----0----|-------------3-|-3----0-0-0----|-2------------|
|-3----3-(3)-3-3--|-----------|---------------|---------------|-0------------|


  W          E E E E E E E E   E E E E E E Q    Q.   E +E  E Q
|-2--------|-3-3-3-3-3-3-3-3-|-3-3-3-3-3-3-3--|-3----3-(3)-3-3--|
|-3--------|-3-3-3-3-3-3-3-3-|-3-3-3-3-3-3-3--|-3----3-(3)-3-3--|
|-2--------|-0-0-0-0-0-0-0-0-|-0-0-0-0-0-0-0--|-0----0-(0)-0-0--|
|-0--------|-----------------|----------------|-0----0-(0)-0-0--|
|----------|-3-3-3-3-3-3-3-3-|-3-3-3-3-3-3-3--|-----------------|
|----------|-----------------|----------------|-3----3-(3)-3-3--|


  Q.   S S Q.   S S   Q.   E E E E S S   Q.   S S +H       W
|-------------------|-2----2-2-2-2-----|-----------------|------|
|-------------------|-3----3-3-3-3-----|------2-2-(2)----|------|
|-5----2-2-2--------|-2----2-2-2-2-5-5-|-5----2-2-(2)----|------|
|-5----2-2-2--------|-0----0-0-0-0-5-5-|-5----2-2-(2)----|-2----|
|-3----0-0-0----x-x-|--------------3-3-|-3----0-0-(0)----|-2----|
|-------------------|------------------|-----------------|-0----|


  W          E E E E E E E E   E E E E E E E E
|-2--------|-3-3-3-3-3-3-3-3-|-3-3-3-3-3-------||
|-3--------|-3-3-3-3-3-3-3-3-|-3-3-3-3-3-------||
|-2--------|-0-0-0-0-0-0-0-0-|-0-0-0-0-0-7-7-7-||
|-0--------|-----------------|-----------7-7-7-||
|----------|-3-3-3-3-3-3-3-3-|-3-3-3-3-3-5-5-5-||
|----------|-----------------|-----------------||


  Gtr I playys Riff 1 x3
  
  Gtr II
   W                           +W
|----------------------------|----------------------------------|
|----------------------------|----------------------------------|
|--4-------------------------|-(4)------------------------------|
|--2-------------------------|-(2)------------------------------|
|--2-------------------------|-(2)------------------------------|
|--0-------------------------|-(0)------------------------------|



  +W                            +H.                   Q
|-----------------------------|--------------------------------|
|-----------------------------|--------------------------------|
|-(4)-------------------------|-(4)-------------------4--------|
|-(2)-------------------------|-(2)-------------------2--------|
|-(2)-------------------------|-(2)-------------------2--------|
|-(0)-------------------------|-(0)-------------------0--------|



  +W                            +W
|-----------------------------|---------------------------------|
|-----------------------------|---------------------------------|
|-(4)-------------------------|-(4)-----------------------------|
|-(2)-------------------------|-(2)-----------------------------|
|-(2)-------------------------|-(2)-----------------------------|
|-(0)-------------------------|-(0)-----------------------------|



  +W                            +W
|-----------------------------|--------------------------------|
|-----------------------------|--------------------------------|
|-(4)-------------------------|-(4)----------------------------|
|-(2)-------------------------|-(2)----------------------------|
|-(2)-------------------------|-(2)----------------------------|
|-(0)-------------------------|-(0)----------------------------|



   W                           +W
|----------------------------|---------------------------------|
|--3-------------------------|-(3)-----------------------------|
|--2-------------------------|-(2)-----------------------------|
|--0-------------------------|-(0)-----------------------------|
|----------------------------|---------------------------------|
|----------------------------|---------------------------------|


[ Tab from: http://www.guitartabs.cc/tabs/i/iron_maiden/wasted_years_tab_ver_5.html ]
  E E   E   E E   E   E E     E   E E   E   E E   E   E
|---------------------------|------------------------------|
|---------------------------|-----3-3---3---3-3---3---3----|
|---------------------------|-----0-0---0---0-0---0---0----|
|---------------------------|------------------------------|
|-3-3---3---3-3---3---3-3---|-3---3-3---3---3-3---3---3----|
|---------------------------|------------------------------|


 Gtr I plays Riff 1 x2
     E E   E   E E   E   E E     E   E E   E   E   E   E   E
||-----------------------------|-------------------------------|
||o----------------------------|-------------------------------|
||-----------------------------|-------------------------------|
||---9---------9---------9-----|-----9---------9-------9---9---|
||o--7---------7---------7-----|-----7---------7-------7---7---|
||-----0---0-----0---0-----0---|-0-----0---0-------0-----------|



  E E   E   E E   E   E E     E   E E   E   E E   E   E
|---------------------------|------------------------------|
|---------------------------|------------------------------|
|---------------------------|------------------------------|
|-9-9---9---9---------9-----|-----9---------9-----9---9----|
|-7-7---7---7---------7-----|-----7---------7-----7---7----|
|-------------0---0-----0---|-0-----0---0-----0------------|



   E E   E   E E   E   E E     E   E E   E   E   E   E   E
|----------------------------|-------------------------------|
|----------------------------|-------------------------------|
|--7---------7---------7-----|-----7---------7-------7-------|
|--7---------7---------7-----|-----7---------7-------7-------|
|--5-5---5---5-5---5---5-5---|-5---5-5---5---5---5---5---5---|
|----------------------------|-------------------------------|



  Q.         E E   E   E E     E   E E   E   E E   E   E
|----------------------------|-------------------------------||
|----------------------------|------------------------------o||
|-5----------5---------5-----|-----5-------------------------||
|-5----------5---------5-----|-----5---------5S7---7---7-----||
|-3----------3-3---3---3-3---|-3---3-3---3---3S5---5---5----o||
|----------------------------|-------------------------------||


 Guitar Solo
   S S S S S S  S S S S S S  S S S S   S S  S S S S S S  S S S S S S E
|------------------------------------|----------------------------------|
|-10p0-8p0-8p0-10p0-8p0-8p0-10p0-8p0-|-8p0-10p0-8p0-8p0-10p0-8p0-8p0h8--|
|------------------------------------|----------------------------------|
|------------------------------------|----------------------------------|
|------------------------------------|----------------------------------|
|------------------------------------|----------------------------------|
|
|  E   E   E    E   E   E    E   E     E    E   E   E    E   E   E   E
|------------------------------------|----------------------------------|
|------------------------------------|----------------------------------|
|------------------------------------|----------------------------------|
|--9------------9------------9-------|------9------------9-------9---9--|
|--7------------7------------7-------|------7------------7-------7---7--|
|------0---0--------0---0--------0---|-0--------0---0--------0----------|


                                  ~
   |---3----|   |---3---|
  +Q    Q   Q   Q   Q   Q     Q   Q   +Q    E  E
|---------------------------|-----------------------|
|-(8)---7---5p==3---5S==7p==|=5---5---(5)-----15b17-|
|---------------------------|-----------------------|
|---------------------------|-----------------------|
|---------------------------|-----------------------|
|---------------------------|-----------------------|
|
|  E  E   E   E E E   E   E   E E E E  E  E E  E
|---------------------------|-----------------------|
|---------------------------|-----------------------|
|---------------------------|-----------------------|
|--9--9---9---9-------9-----|---9------9----9--9----|
|--7--7---7---7-------7-----|---7------7----7--7----|
|---------------0-0-------0-|-0---0-0-----0---------|


   +S   S  S  S  E.      S  S  S  E     S  S  S  S
|-----------------------12-------------12-------------|
|-(17)-12-15p12------------15p12-15b17----15p12-------|
|---------------14b16---------------------------14b15-|
|-----------------------------------------------------|
|-----------------------------------------------------|
|-----------------------------------------------------|
|
|   E      E     E    E     E     E     E     E
|-----------------------------------------------------|
|-----------------------------------------------------|
|---7-----------------7-----------------7-------------|
|---7-----------------7-----------------7-------------|
|---5------5-----5----5-----5-----5-----5-----5-------|
|-----------------------------------------------------|


   S  S  S  S  E     +S   S  E      +E   +S    E    S
|---------------------------14b15==(15)-(15)r-14---14b15==|
|-12-12-15-12-15b17r(15)p12-------------------------------|
|---------------------------------------------------------|
|---------------------------------------------------------|
|---------------------------------------------------------|
|---------------------------------------------------------|
|
|  E     E     E      E      E       E    E      E
|---------------------------------------------------------|
|---------------------------------------------------------|
|--------7-------------------7------------7---------------|
|--------7-------------------7------------7---------------|
|--5-----5-----5------5------5-------5----5------5--------|
|---------------------------------------------------------|


    |----3----|
   +Q   +Q    Q       +S   Q         S  S  S
|-(15)-(15)r-14b15r==(14)-14b16r====14p12----|
|-----------------------------------------13-|
|--------------------------------------------|
|--------------------------------------------|
|--------------------------------------------|
|--------------------------------------------|
|
|   Q.             E   E        E E     E
|--------------------------------------------|
|--------------------------------------------|
|---5--------------5--------------5----------|
|---5--------------5--------------5----------|
|---3--------------3---3--------3-3-----3----|
|--------------------------------------------|


   ~~~
                                  |---3---|
   H.            E  E    S  S  S  S  S    S  S  S  S  S  S  S  S  S  S  S  S
|------------------15-|-14-15p12----15p==12-15-14----12h15p12h15-14-15p12----|
|-13------------13----|----------12---------------12----------------------12-|
|---------------------|------------------------------------------------------|
|---------------------|------------------------------------------------------|
|---------------------|------------------------------------------------------|
|---------------------|------------------------------------------------------|
|
|  E  E E E E E  E  E    E     E       E        E     E     E     E     E
|---------------------|------------------------------------------------------|
|---------------------|------------------------------------------------------|
|-----5---------------|------------------------------------------------------|
|-----5-----5S7--7--7-|--9----------------------9-----------------9----------|
|--3--3-3-3-3S5--5--5-|--7----------------------7-----------------7----------|
|---------------------|--------0-------0--------------0-----0-----------0----|


   S  S  S  S  S S  S  S  S S  S  S  S  S  S  S
|-12h15p14----12---12-15-14---12----12h15p14----|
|----------12----0--------0-0----12-------------|
|--------------------------------------------12-|
|-----------------------------------------------|
|-----------------------------------------------|
|-----------------------------------------------|
|
|  E     E     E    E     E    E     E     E
|-----------------------------------------------|
|-----------------------------------------------|
|-----------------------------------------------|
|--------9----------------9----------9-----9----|
|--------7----------------7----------7-----7----|
|--0-----------0----0----------0----------------|


                                             |--3--|
   S  S  S  S  S  S  S  S  S  S  S  S  S  S  S  S  S
|-12----12-15-14h15p12----12-15-14h15-12----12h15p14--|
|----12----------------12----------------12-----------|
|-----------------------------------------------------|
|-----------------------------------------------------|
|-----------------------------------------------------|
|-----------------------------------------------------|
|
|  E     E     E     E     E     E     E     E
|-----------------------------------------------------|
|-----------------------------------------------------|
|-----------------------------------------------------|
|--9-----9-----9-----9-----------------9--------------|
|--7-----7-----7-----7-----------------7--------------|
|--------------------------0-----0-----------0--------|


   S  S  S  S  S  E.    +E  E  E  E
|----12----12-15p12----(12)S2----12-|
|-12----12--------------------12----|
|-12--------------------------------|
|-----------------------------------|
|-----------------------------------|
|-----------------------------------|
|
|  E     E     E     E   E  E  E  E
|-----------------------------------|
|-----------------------------------|
|-----------------------------------|
|--------9---------------9-----9--9-|
|--------7---------------7-----7--7-|
|--0-----------0-----0------0-------|


   S  S  S. T  S  S  S  S  S  S  S  S S  S  S  S
|-14h15-12h14h15-12-------------------------------|
|-------------------13h15-12h13----12-------------|
|-------------------------------------x-14-11h12--|
|-------------------------------15----------------|
|-------------------------------------------------|
|-------------------------------------------------|
|
|  E     E     E     E     E     E    E     E
|-------------------------------------------------|
|-------------------------------------------------|
|--7-----------------7----------------7-----------|
|--7-----------------7----------------7-----------|
|--5-----5-----5-----5-----5-----5----5-----5-----|
|-------------------------------------------------|


                   ~
   S  S  S  S S  S E +Q    E  E       +E   E  E  E  E  E  S  E    S
|-12-------------------------------|------14-15----14-15-17p15---17-|
|----------------------------17b18r|=(17)-------17------------------|
|----11----------------------------|--------------------------------|
|-------12h13-9h12-9-(9)-----------|--------------------------------|
|----------------------------------|--------------------------------|
|----------------------------------|--------------------------------|
|
|  E     E    E    E  E  E E  E        E   E  E  E  E  E  E    E
|----------------------------------|---3---3--3--3--3--3--3----3----|
|----------------------------------|---3---3--3--3--3--3--3----3----|
|--------7------------7----7-------|---0---0--0--0--0--0--0----0----|
|--------7------------7----7-------|--------------------------------|
|--5-----5----5----5--5--5-5--5----|---3---3--3--3--3--3--3----3----|
|----------------------------------|--------------------------------|


                                            D.S.S. al Dbl. Coda
   |---3---|  |---3---|          |---3---|
   E  E    E  E  E    E  Q       E   E   E
|-19-17---19-20-19---20-22b24r==22--20--22---||
|--------------------------------------------||
|--------------------------------------------||
|--------------------------------------------||
|--------------------------------------------||
|--------------------------------------------||
|
|  E    E     E    E     E    E  Q
|--3----3-----3----3-----3----3--3\----------||
|--3----3-----3----3-----3----3--3\----------||
|--0----0-----0----0-----0----0--0\----------||
|--------------------------------------------||
|--3----3-----3----3-----3----3--3\----------||
|--------------------------------------------||


 Outro
  &&
 Gtr I plays Riff 1 x2.5
   W                           +W
|----------------------------|---------------------------------|
|----------------------------|---------------------------------|
|--4-------------------------|-(4)-----------------------------|
|--2-------------------------|-(2)-----------------------------|
|--2-------------------------|-(2)-----------------------------|
|--0-------------------------|-(0)-----------------------------|



  +W                            +H.                   Q
|-----------------------------|--------------------------------|
|-----------------------------|--------------------------------|
|-(4)-------------------------|-(4)-------------------4--------|
|-(2)-------------------------|-(2)-------------------2--------|
|-(2)-------------------------|-(2)-------------------2--------|
|-(0)-------------------------|-(0)-------------------0--------|



  +W                            +W
|-----------------------------|---------------------------------|
|-----------------------------|---------------------------------|
|-(4)-------------------------|-(4)-----------------------------|
|-(2)-------------------------|-(2)-----------------------------|
|-(2)-------------------------|-(2)-----------------------------|
|-(0)-------------------------|-(0)-----------------------------|



  +W                            +W
|-----------------------------|--------------------------------|
|-----------------------------|--------------------------------|
|-(4)-------------------------|-(4)----------------------------|
|-(2)-------------------------|-(2)----------------------------|
|-(2)-------------------------|-(2)----------------------------|
|-(0)-------------------------|-(0)----------------------------|



   W                           +W
|----------------------------|---------------------------------|
|----------------------------|---------------------------------|
|--7-------------------------|-(7)-----------------------------|
|--7-------------------------|-(7)-----------------------------|
|--5-------------------------|-(5)-----------------------------|
|----------------------------|---------------------------------|


           |--3--|
  Q.     E E E   E Q     +E  Q.     E E Q    W
|----------------------|-------------------|------*|
|-5------3-3-5---3-----|-------------------|------*|
|------------------5---|-(5)-4------2-0----|-4----*|
|----------------------|----------------2--|-2----*|
|----------------------|-------------------|-2----*|
|----------------------|-------------------|-0----*|
|
| E  E E E E   E   E E    E  E  E E E E Q    W
|----------------------|-------------------|------*|
|----------------------|-------------------|------*|
|----------------------|-------------------|-4----*|
|----------------------|-------------------|-2----*|
|-3--3-3-2-2---2-------|-------------------|-2----*|
|------------------5-5-|--5--3--3-3-5-3-0--|-0----*|
Comments