Iron Maiden - Wasted Years Chords & Tabs

 

Wasted Years Chords & Tabs

Iron Maiden Chords & Tabs

Version: 4 Type: Tab 0 ratings
1 star 2 stars 3 stars 4 stars 5 stars
comments

Wasted Years Tab

Wested years
Iron maiden


 Intro  (verce 1)
||-12-0-0-0-0-7-0-0-0-0-8-0-0-0-0-5-0-0-0-0-7-0-0-0-0-3-0-0-0-0-5-0-0-0-0-2-0-0-0-0-|
||----------------------------------------------------------------------------------|
||----------------------------------------------------------------------------------|
||----------------------------------------------------------------------------------|
||----------------------------------------------------------------------------------|
||----------------------------------------------------------------------------------|
                 jouer la reprise 4 fois                               armonic
|-3-0-0-0-0-5-0-0-0-0-2-0-0-0-3-0-0-0-0--||-------------|             |-------|
|---------------------------------------*||-------------|             |-------|
|----------------------------------------||---7-7-7-----|   guit 2 -> |---7---|
|----------------------------------------||---7-7-7-----|             |-------|
|---------------------------------------*||---5-5-5-----|             |-------|
|----------------------------------------||-------------|             |-------|
 (verce 2)   00:28
||--------------------------------------------------------------------------------|
||*-------------------------------------------------------------------------------|
||--7/9--9----9-----9-----12-12-12--12/7-7----7-----7------7-7-7\9-9----9---9-----|
||--7/9--9----9-----9-----12-12-12--12/7-7----7-----7------7-7-7\9-9----9---9-----|
||*-5/7--7----7-----7-----10-10-10--10/5-5----5-----5------5-5-5\7-7----7---7-----|
||-8---0--0-0---0-0---0-0----------0-------0-0--0-0---0-0-0-------0--0-0-0-0-0-0--|
pm      ...   ...   ...          ..      ...  ...   ... .       .  ... ... ...

|----------------------------------------------------------------------------------|
|----------------------------------------------------------------------------------|
|-12-12--12/7-7---7----12-12-12-12/5-5-5-5----7\9-9----9---9---9-12-12-12-12\7-7---|
|-12-12--12/7-7---7----12-12-12-12/5-5-5-5----7\9-9----9---9---9-12-12-12-12\7-7---|
|-10-10--10/5-5---5----10-10-10-10/3-3-3-3----5\7-7----7---7---7-10-10-10-10\5-5---|
|-------0------0-0--0-0--------------------------0--0-0-0-0-0-0-----------0-----0-0|
        .      ...  ...                          .  ... ... ...           .      ...
[ Tab from: http://www.guitartabs.cc/tabs/i/iron_maiden/wasted_years_tab_ver_4.html ]
|--------------------------------------||
|-------------------------------------*||
|-7---7----7-7/12-12-12-12\5-5-5-5-----||
|-7---7----7-7/12-12-12-12\5-5-5-5-----||
|-5---5----5-5/10-10-10-10\3-3-3-3----*||
|--0-0--0-0----------------------------||
   ...  ...    
 chorus  (1:18)
||-------------------------------------------------------------||
||--------------2-2-------------2-2---------------------------*||
||*-------------2-2-------------2-2----------------------------||
||--5-5-5-5-5-5-2-2-7-7-7-7-5-5-2-2--9-9-9-9-7-7-7-7-5----5----||
||*-5-5-5-5-3-3-----5-5-5-5-3-3------7-7-7-7-5-5-5-5-3----3---*||
||--3-3-3-3----------------------------------------------------||

  faire verce 2
  faire chorus
  puis faire verse 1  7x
  solo   3:17     switch up
|-------------------------------------------------------------------|
|-10-0-8-0-8-10-0-8-0-8-10-0-8-0-8-10-0-8-0-8---8/7-----------------|
|---------------------------------------------------9--79^9-------|
|-------------------------------------------------------------------|
|-------------------------------------------------------------------|
|-------------------------------------------------------------------|

|----12-----------12-----------12----------12---------13^-13^-13^-13-12-----|
|-15^---15h12--------15h12-15^----15h12--------15h12--------------------13--|
|-------------14^-----------------------14^---------------------------------|
|---------------------------------------------------------------------------|
|---------------------------------------------------------------------------|
|---------------------------------------------------------------------------|

|-15h14h15h1415h14h15h1415h14h15h14-------------------|
|------------17-----------17-----------17-----------------|
|----------------------------------------repette-cette mesure 5ou6 fois|
|---------------------------------------------------------|
|---------------------------------------------------------|
|---------------------------------------------------------|

|-12h15h12h15h12----12-------------------------------------|
|----------------15----15h12---12--------------------------|
|----------------------------14---14h12--12----------------|
|--------------------------------------1414h12-----------|
|------------------------------------------------14~~------|
|----------------------------------------------------------|

|-12-14-15-14h15h17-15-17/19/22-22--|------20-19-20-22-19-20-----------|
|-----------------------------------|------------------------18~-------|
|-----------------------------------|----------------------------17~---|
|-----------------------------------|----------------------------------|
|-----------------------------------|----------------------------------|
|-----------------------------------|----------------------------------|
  faire chorus 4x
  faire verse 1
  fin
|-------------------------------------------------------|
|-5-5-5-5-5-3-3-3-3-3-1-1-1-1-1h0-0-0-------------------|
|-------------------------------------2h0---------------|   faire fead back 
|----------------------------------------2---2----------|   a la fin
|--------------------------------------------2----------|
|--------------------------------------------0----------|
Comments