Iron Maiden - Transylvania Chords & Tabs

 

Transylvania Chords & Tabs

Iron Maiden Chords & Tabs

Version: 5 Type: Tab 0 ratings
1 star 2 stars 3 stars 4 stars 5 stars
comments

Transylvania Tab

   
Bueno esta es mi primer tabla, espero me haya explicado bien y recuerden que los de
Iron tocan muy rápido, así que a practicar.
Es solo el primer solo, el segundo lo estoy sacando, pronto lo subiré también.
Diviertanse y practiquenlo mucho.

|-18p17p15-----18p17p15----18p17p15-------------------|
|----------14b----------14b---------17b-17b-16b(HOLD)-|
|-----------------------------------------------------|
|-----------------------------------------------------|
|-----------------------------------------------------|
|-----------------------------------------------------|


|-----18p17p15-18p17p15-18p17p15-18p17p15-18p17p15-18p17p15-18p17p15-20b20b~|
|-19------------------------------------------------------------------------|
|---------------------------------------------------------------------------|
|---------------------------------------------------------------------------|
|---------------------------------------------------------------------------|
|---------------------------------------------------------------------------|


|-------------------------------------15b-15br-17b-17br-19b(HOLD)--|
|-15b-15br-15b-15br-17b-17br-17b-17br------------------------------|
|------------------------------------------------------------------|
|------------------------------------------------------------------|
|------------------------------------------------------------------|
|------------------------------------------------------------------|
[ Tab from: http://www.guitartabs.cc/tabs/i/iron_maiden/transylvania_tab_ver_5.html ]
                                                                   
|-12h15p12h15p12h15p12h15-------------------------------------------|
|------------------------12h15p12h15p12h15p12h15--------------------|
|-----------------------------------------------12h14p12h14p12h14---|
|----------------------------------------------------------------14-|
|-------------------------------------------------------------------|
|-------------------------------------------------------------------|


|-12h15p12h15p12h15p12h15-------------------------------------------|
|------------------------12h15p12h15p12h15p12h15--------------------|
|-----------------------------------------------12h14p12h14p12h14---|
|----------------------------------------------------------------14-|
|-------------------------------------------------------------------|
|-------------------------------------------------------------------|


|-12h15p12h15p12h15-----------------12h15p12h15p12h15------------------|
|------------------12h15p12h15p12h15-----------------12h15p12h15p12h15-|
|----------------------------------------------------------------------|
|----------------------------------------------------------------------|
|----------------------------------------------------------------------|
|----------------------------------------------------------------------|


|---12-14-15-17-18b-18b(HOLD)-|
|-15--------------------------|
|-----------------------------|
|-----------------------------|
|-----------------------------|
|-----------------------------|

Te amo Flakita

SIMBOLOGIA

b=Bend
br=Bend Relase
p=Pull Of
h= Hammer on

VIVA EL ROCK POR SIEMPRE YEEEEEEEEAAAAAHHHH!!!!!!!!!
.............................................................................
Comments