Iron Maiden - Transylvania Chords & Tabs

 

Transylvania Chords & Tabs

Iron Maiden Chords & Tabs

Version: 4 Type: Tab 0 ratings
1 star 2 stars 3 stars 4 stars 5 stars
comments

Transylvania Tab

   
Song: Transylvania
Band: Iron Maiden

This is the version of Transylvania from Live At The Rainbow in the Early Days DVD.


Riff A
--------------------------------------------|
--------------------------------------------|
--------------------------------------------|
-----------------------------------------3--| x4
--5--5--5-5-5-5--5--5-5-5-5--5--5-5-5--3----|
--------------------------------------------|

--------------------------------------------                     --------|
--------------------------------------------                     --------|
--------------------------------------------                     --------|
-----------------------------------------5-- x4 on the last play --------|
--7--7--7-7-7-7--7--7-7-7-7--7--7-7-7--5----                     --3--5--|
--------------------------------------------                     --------|

Riff B
-----------------------------------------------------------|
-----------------------------------------------------------|
-----------------------------------------------------------|
-----------------------------------------------------------|
--7-7-7-7-10-9-7-7-7-7-10-9------------------7-7-7-7-10-9--| x2
----------------------------10-10-10-10-8-10---------------|

------------------------------------------------------|
------------------------------------------------------|
------------------------------------------------------|
------------------------------------------------------|
------------------------------------------------------| x2
--7-7-7-7-10-9-7-7-7-7-10-9-5-5-5-5-3-5-7-7-7-7-10-9--|

-----------------------------------------------------------|
-----------------------------------------------------------|
-----------------------------------------------------------|
-----------------------------------------------------------|
--7-7-7-7-10-9-7-7-7-7-10-9------------------7-7-7-7-10-9--| x2
----------------------------10-10-10-10-8-10---------------|
[ Tab from: http://www.guitartabs.cc/tabs/i/iron_maiden/transylvania_tab_ver_4.html ]
------------------------------------------------------|
------------------------------------------------------|
------------------------------------------------------|
------------------------------------------------------|
------------------------------------------------------| x2
--7-7-7-7-10-9-7-7-7-7-10-9-5-5-5-5-3-5-7-7-7-7-10-9--|

Riff C
------------------------------------|
--12---10---8--7-8-7-7-8-7-7-8-7----|
---------------------------------9--|
------------------------------------| x4
------------------------------------|
------------------------------------|

Riff B
-----------------------------------------------------------|
-----------------------------------------------------------|
-----------------------------------------------------------|
-----------------------------------------------------------|
--7-7-7-7-10-9-7-7-7-7-10-9------------------7-7-7-7-10-9--| x2
----------------------------10-10-10-10-8-10---------------|

------------------------------------------------------|
------------------------------------------------------|
------------------------------------------------------|
------------------------------------------------------|
------------------------------------------------------| x2
--7-7-7-7-10-9-7-7-7-7-10-9-5-5-5-5-3-5-7-7-7-7-10-9--|

Riff C
------------------------------------|
--12---10---8--7-8-7-7-8-7-7-8-7----|
---------------------------------9--|
------------------------------------| x4
------------------------------------|
------------------------------------|

Riff A
--------------------------------------------                     --------|
--------------------------------------------                     --------|
--------------------------------------------                     --------|
-----------------------------------------5-- x4 on the last play --------|
--7--7--7-7-7-7--7--7-7-7-7--7--7-7-7--5----                     --3--5--|
--------------------------------------------                     --------|

Then the song goes into the faster part with the solo's i couldn't work out any of it so 
tab ends here.
Comments