Iron Maiden - Transylvania Chords & Tabs

 

Transylvania Chords & Tabs

Iron Maiden Chords & Tabs

Version: 3 Type: Tab 0 ratings
1 star 2 stars 3 stars 4 stars 5 stars
comments

Transylvania Tab

Hi I hope u like it i'm tha guy that tab the "smells like teen spirit ver 11".

This is incomplete because i'm wonking on the solo and the second guitars.

Intro:
|-----------------------------------------|
|-----------------------------------------|
|-----------------------------------------|   (x4)
|----------------------------------3------|
|-5-5-5-5-5--5-5-5-5-5--5-5-5-5--3--------|
|-----------------------------------------|

|-----------------------------------------|
|-----------------------------------------|
|-----------------------------------------|   (x4)
|------------------------------------5----|
|-7-7-7-7-7--7-7-7-7-7--7-7-7-7-7--5------|
|-----------------------------------------|

[ Tab from: http://www.guitartabs.cc/tabs/i/iron_maiden/transylvania_tab_ver_3.html ]
|-------------------------------------------------|  ------\
|-------------------------------------------------|         |
|-------------------------------------------------| (REPEAT)|
|-2-2-2-2-5-4-2-2-2-2-5-4-2-2-2-2-5-4-------------|         | 
|-------------------------------------5-5-5-5-2-5-|         |
|-------------------------------------------------|         |
						            |Riff 1
|-------------------------------------------------|         |
|-------------------------------------------------|         |
|-------------------------------------------------| (REPEAT)|
|-------------------------------------------------|         |
|-2-2-2-2-5-4-2-2-2-2-5-4-2-2-2-2-5-4-------------|         |
|-------------------------------------5-5-5-5-2-5-|  ------/

REPEAT BOTH ONCE AGAIN THEN:

(GUITAR 1)
|--------------------------------------------------|\
|-12---10--8----8---8---8----8p7---10--8p7h8p7-----||
|-14B--12--10B--10--10--10R------9-------------9-9-||
|------------(HOLD BEND)---------------------------||
|--------------------------------------------------||
|--------------------------------------------------||
(GUITAR 2)                                          |Riff 2 (x4)
|--------------------------------------------------||
|-9----7---12---12--12--12---5-----7---9-9-9-9-----||
|-9----7---12---12--12--12---5-----7---9-9-9-9-----||
|-7----5---10---10--10--10---3-----5---7-7-7-7-----||
|--------------------------------------------------||
|--------------------------------------------------|/
Then:

Repeat "Riff 1" and "Riff 2" and then the intro again.

|-------------|
|-------------|
|-------------|
|-5-5-5p4-----|(over the solo)
|---------7-5-|
|-------------|
Comments