Iron Maiden - To Tame A Land Chords & Tabs

 

To Tame A Land Chords & Tabs

Iron Maiden Chords & Tabs

Version: 2 Type: Tab 0 ratings
1 star 2 stars 3 stars 4 stars 5 stars
comments

To Tame A Land Tab

   
-----------------------------------------------------
---Iron Maiden - Piece of Mind - To Tame a Land------
------transcribed by---------------------------------
--------Tobias Heinzelmann---------------------------
----------eMail: heinzel@gmx.de----------------------
------------HomePage: privat.schlund.de/Ringgeister--
-----------------------------------------------------

For questions and comments: please eMail me!
Every eMail will be answered!

Intro

e|---------------------------------------------------------------------------
B|---------------------------------------------------------------------------
G|---------------------------------------14-16-14----------------------------
D|-16--16-17-16-14-16--16-17-16-14-16-17----------17-16-17-16-17-16-17-16--14
A|---------------------------------------------------------------------------
E|---------------------------------------------------------------------------

e|---------------------------------------------------------------------------
B|---------------------------------------------------------------------------
G|---------------------------------------------------------------------------
D|--------14--------------14----------14-16-17-16-14----14-16-17-16-14-17--14
A|-17--17----17-16-17--17----17-16-17----------------17----------------------

E|---------------------------------------------------------------------------
e|---------------------------------------------------------------------------
B|---------------------------------------------------------------------------
G|---------------------------------------14-16-14----------------------------
D|-16--16-17-16-14-16--16-17-16-14-16-17----------17-16-17-16-17-16-17-16--14
A|---------------------------------------------------------------------------
E|---------------------------------------------------------------------------

e|---------------------------------------------------------------------------
B|---------------------------------------------------------------------------
G|---------------------------------------------------------------------------
D|---------------------------------------12-13-12----------12-13-12----------
A|-13--13-15-13-12-13--13-15-13-12-13-15----------15-13-15----------15-13--15
E|---------------------------------------------------------------------------

repeat intro

1st Riff


e|---------------------------------------------------------------------------
B|---------------------------------------------------------------------------
G|---------9-------------9------------------8-------------9------------------
D|---------9-------------9------------------8-------------9------------------
A|-7-7-7-7-7-----7-7-7-7-7-----10-10-10-10-10-----7-7-7-7-7------------------
E|---------------------------------------------------------------------------

e|---------------------------------------------------------------------------
B|---------------------------------------------------------------------------
G|---------9-------------9-----------------13-------------10-----------------
D|---------9-------------9-----------------13-------------10-----------------
A|-7-7-7-7-7-----7-7-7-7-7-----11-11-11-11-11-----8-8-8-8-8------------------
E|---------------------------------------------------------------------------

(repeat)

2nd Riff

e|---------------------------------------------------------------------------
B|---------------------------------------------------------------------------
G|---------9-------------9-------------5-------------2-----------------------
D|---------9-------------9-------------5-------------2-----------------------
A|-7-7-7-7-7-----7-7-7-7-7-----3-3-3-3-3-----0-0-0-0-0-----------------------
E|---------------------------------------------------------------------------

e|---------------------------------------------------------------------------
B|---------------------------------------------------------------------------
G|---------9-------------9-------------7-------------4-----------------------
D|---------9-------------9-------------7-------------4-----------------------
A|-7-7-7-7-7-----7-7-7-7-7-----5-5-5-5-5-----2-2-2-2-2-----------------------
E|---------------------------------------------------------------------------

Lead:

[ Tab from: http://www.guitartabs.cc/tabs/i/iron_maiden/to_tame_a_land_tab_ver_2.html ]
e|----------------------------------------------------------------------------------
B|----------------------------------------------------------------------------------
G|-----16-16-16--16--17-16-14-16-----16-16-16--16--17-16-14-16-----14-16-14-16-14---
D|-14----------------------------14-----------------------------17----------------14
A|----------------------------------------------------------------------------------
E|----------------------------------------------------------------------------------


e|----------------------------------------------------------------------------------
B|----------------------------------------------------------------------------------
G|-----16-16-16--16--17-16-14-16-----16-16-16--16--17-16-14-16--13-13-15-13-15-15---
D|-14----------------------------14-----------------------------------------------15
A|----------------------------------------------------------------------------------
E|----------------------------------------------------------------------------------
(repeat)

(repeat 2nd Riff)

Lead 2:

e|----------------------------------------------------------------------------------
B|----------------------------------------------------------------------------------
G|----------------------------------------------------------------------------------
D|------------9-10-9----------------9-7-9-------------------------------------------
A|---9-9-9-10--------10----9-9-9-10-------------------------------------------------
E|-7---------------------7----------------------------------------------------------

(repeat 8 times, then play the Riff two halfs lower [repeat 4 times]


(Refrain)
e|----------------------------------------------------------------------------------
B|----------------------------------------------------------------------------------
G|-7----------7----------2----------2-----------------------------------------------
D|-7----------7----------2----------2-----------------------------------------------
A|-5----------5----------0----------0-----------------------------------------------
E|----------------------------------------------------------------------------------
(repeat, 2nd time Bruce starts singing


e|----------------------------------------------------------------------------------
B|----------------------------------------------------------------------------------
G|-7------7------7-----9------9------9-----10-----10-----10----9--10-9--------------
D|-7------7------7-----9------9------9-----10-----10-----10----9--10-9--------------
A|-5--5-5-5--5-5-5--5--7--7-7-7--7-7-7--7--8--8-8-8--8-8-8--7--7--8--7--------------
E|----------------------------------------------------------------------------------


e|----------------------------------------------------------------------------------
B|----------------------------------------------------------------------------------
G|-2------2------2-----4------4------4-----5------5------5-----4--5--4--------------
D|-2------2------2-----4------4------4-----5------5------5-----4--5--4--------------
A|-0--0-0-0--0-0-0--0--2--2-2-2--2-2-2--2--3--3-3-3--3-3-3--2--2--3--2--------------
E|----------------------------------------------------------------------------------


e|----------------------------------------------------------------------------------
B|----------------------------------------------------------------------------------
G|-7----------------7---------------------------------------------------------------
D|-7-----8-5-5--5---7-----8-5-5--5--------------------------------------------------
A|-5-----8-5-5--5---5-----8-5-5--5--------------------------------------------------
E|-------6-3-3--3---------6-3-3--3--------------------------------------------------
(repeat 2 times)


this is a hard one:
a)
e|----------------------------------------------------------------------------------
B|----------------------------------------------------------------------------------
G|----------------------------------------------------------------------------------
D|---9-10-9-7-9-------9-10-9-7-9------9-10-9-7-9----9----7--------------------------
A|--------------10---------------10--------------10---10---9-10---------------------
E|-7----------------7---------------7---------------------------10------------------
(repeat)

b)
e|----------------------------------------------------------------------------------
B|----------------------------------------------------------------------------------
G|----------------------------------------------------------------------------------
D|---9-10-9-7-9-------9-10-9-7-9------9-10-9-7-9------------------------------------
A|--------------10---------------10----------------------7-9-10---------------------
E|-7----------------7---------------7-------------7-9-10----------------------------
(repeat)

(repeat a & b)


Now the Solo:
the whole solo-part is E - D
the beginning and the end is very easy, so I think I don't have to tab' it, but
the middle part is very hard, so I'm not be able to listen it out correctly.

the outro is same as the intro
Comments