Iron Maiden - The Wicker Man Chords & Tabs

 

The Wicker Man Chords & Tabs

Iron Maiden Chords & Tabs

Version: 8 Type: Tab 0 ratings
1 star 2 stars 3 stars 4 stars 5 stars
comments

The Wicker Man Tab

   
Solo:

   B	   A         G              A                    B
E---------------------------10----7---7----7---7--------------------------------|
B-10b(12)--b10(12)--b10(12)----10---8---10---8---10--------10b(12)-10-10-8-10-8-|
G---------------------------------------------------9-9-8v----------------------|
D-------------------------------------------------------------------------------|
A-------------------------------------------------------------------------------|
E-------------------------------------------------------------------------------|

       A            G                A       B                 A
E----------------------------------------------------------------------------|
B----------------------------------------------------------------------------|
G-9-8-9-8-9-8vv-------------------------------------------------9------------|
D---------------------7---------9-7-----------9--------9----------10-9-6-----|
A----------------7-10---10-7-10-----10-7-6------10-9-6---10-9-6--------------|
E----------------------------------------------------------------------------|
[ Tab from: http://www.guitartabs.cc/tabs/i/iron_maiden/the_wicker_man_tab_ver_8.html ]
             G               A                         B
E--------------------------------------------------------17-19-20-19-17---17-|
E--------------------------------------------------19-20----------------20---|
G--9-------------------------12-9-------12-9---------------------------------|
D----10-9-6--7-4-----7-4----------12-10------12-10---------------------------|
A----------------7-5-----7-5-------------------------------------------------|
E----------------------------------------------------------------------------|

      A                                  G                      A
E-------------17--------------------------17-19-20-19-17----17-------------|
B-19-17-19-20----20-19-17-19-17-16--19-20----------------20----19-17-16-16-|
G--------------------------------------------------------------------------|
D--------------------------------------------------------------------------|
A--------------------------------------------------------------------------|
E--------------------------------------------------------------------------|

E-------------|
B-------------|
G--16-16vvvv--|
D-------------|
A-------------|
E-------------|
Comments