Iron Maiden - The Wicker Man Chords & Tabs

 

The Wicker Man Chords & Tabs

Iron Maiden Chords & Tabs

Version: 7 Type: Tab 0 ratings
1 star 2 stars 3 stars 4 stars 5 stars
comments

The Wicker Man Tab

   
               The Wicker Man                                                           
Adrian Smith     ;NOTE: COPY AND PASTE THIS TAB INTO NOTEPAD
                             TO UNDERSTAND BETTER
                               

                                                                              
E||--------------------||--------------------------|------
B||--------------------||--------------------------|------
G||-----------------9--||*----9-----------------9--|----9-
D||--------------x--9--||*----9-----------------9--|----9-
A||--------------x--7--||-----7-----------------7--|----7-
E||--------------x--0--||-----0--0--0--0--0--0--0--|----0-


       
-------------------|--------------------------|
-------------------|--------------------------|
----------------9--|----9---------------------|
----------------9--|----9-----------------10--|
----------------7--|----7-----------------10--| 
-0--0--0--0--0--0--|----0--0--0--0--0--0--8---|


                            3x                   
----------------------------||---------------------------
----------------------------||---------------------------
-----------12----12-----9--*||-----------12----12-----9--
----10-----12----12-----9--*||----10-----12----12-----9--
----10-----10----10--x--7---||----10-----10----10--x--7--
----8---x---------------0---||----8---x---------------0--


                                                        
||--------------------------|-------------------------|
||--------------------------|-------------------------|
||*----9-----------------9--|----9-----------------9--|
||*----9-----------------9--|----9-----------------9--|
||-----7-----------------7--|----7-----------------7--|
||-----0--0--0--0--0--0--0--|----0--0--0--0--0--0--0--|


                                                     
--------------------------|---------------------------|
--------------------------|---------------------------|
----9---------------------|-----------12----12-----9--|
----9-----------------10--|----10-----12----12-----9--|
----7-----------------10--|----10-----10----10--x--7--|
----0--0--0--0--0--0--8---|----8---x---------------0--|


                                                                                
-------------------------|-------------------------|
-------------------------|-------------------------|
----9-----------------9--|----9-----------------9--|
----9-----------------9--|----9-----------------9--|
----7-----------------7--|----7-----------------7--|
----0--0--0--0--0--0--0--|----0--0--0--0--0--0--0--|


                                                       
--------------------------|---------------------------|
--------------------------|---------------------------|
----9---------------------|-----------12----12-----9--|
----9-----------------10--|----10-----12----12-----9--|
----7-----------------10--|----10-----10----10--x--7--|
----0--0--0--0--0--0--8---|----8---x---------------0--|


                                                                               
-------------------------|-------------------------|
-------------------------|-------------------------|
----9-----------------9--|----9-----------------9--|
----9-----------------9--|----9-----------------9--|
----7-----------------7--|----7-----------------7--|
----0--0--0--0--0--0--0--|----0--0--0--0--0--0--0--|



--------------------------|---------------------------|
--------------------------|---------------------------|
----9---------------------|-----------12----12-----9--|
----9-----------------10--|----10-----12----12-----9--|
----7-----------------10--|----10-----10----10--x--7--|
----0--0--0--0--0--0--8---|----8---x---------------0--|


                                                                                
-------------------------|-------------------------|
-------------------------|-------------------------|
----9-----------------9--|----9-----------------9--|
----9-----------------9--|----9-----------------9--|
----7-----------------7--|----7-----------------7--|
----0--0--0--0--0--0--0--|----0--0--0--0--0--0--0--|


                                                                          
--------------------------|---------------------------|
--------------------------|---------------------------|
----9---------------------|-----------12----12-----7--|
----9-----------------10--|----10-----12----12-----7--|
----7-----------------10--|----10-----10----10--x--5--|
----0--0--0--0--0--0--8---|----8---x------------------|



------------------|---------------------|
------------------|---------------------|
------------------|----------7--9----5--|
------------------|----------7--9----5--|
------------------|----------5--7----3--|
------------------|---------------------|


                                                                    
------------------|--------------------------|
------------------|--------------------------|
------------------|--12--12----11----9----7--|
------------------|--12--12----11----9----7--|
------------------|--10--10----9-----7----5--|
------------------|--------------------------|


                                                             
------------------|---------------------|
------------------|---------------------|
------------------|----------7--9----5--|
------------------|----------7--9----5--|
------------------|----------5--7----3--|
------------------|---------------------|



-------------------|----------------------|
-------------------|----------------------|
-------------------|---------5--5------7--|
----------------5--|--5------5--5------7--|
----------------5--|--5------3--3------5--|
----------------3--|--3-------------------|
                                                           
------------------|---------------------|
------------------|---------------------|
------------------|----------9--9----5--|
------------------|----------9--9----5--|
------------------|----------7--7----3--|
------------------|---------------------|


                                                                 
------------------|--------------------------|
------------------|--------------------------|
------------------|--12--12----11----9----7--|
------------------|--12--12----11----9----7--|
------------------|--10--10----9-----7----5--|
------------------|--------------------------|



------------------|---------------------|
------------------|---------------------|
------------------|----------7--9----5--|
------------------|----------7--9----5--|
------------------|----------5--7----3--|
------------------|---------------------|


                                                                
------------------|----------------------|
------------------|----------------------|
------------------|--5------7--7---------|
------------------|--5------7--7----x----|
------------------|--3------5--5----x----|
------------------|----------------------|


                                                              
------------------------------|------------------------------|
--12--10--12--10--12----------|--12--10--12--10--12----------|
----------------------12------|----------------------12------|
------------------------------|------------------------------|
------------------------------|------------------------------|
------------------------------|------------------------------|


                                                              
------------------------------|------------------------------|
--12--10--12--10--12----------|--12--10--12--13--12----------|
----------------------12------|----------------------12------|
------------------------------|------------------------------|
------------------------------|------------------------------|
------------------------------|------------------------------|


                                                              
------------------------------|------------------------------|
--12--10--12--10--12----------|--12--10--12--10--12----------|
----------------------12------|----------------------12------|
------------------------------|------------------------------|
------------------------------|------------------------------|
------------------------------|------------------------------|


                                                              
------------------------------|------------------------------|
--12--10--12--10--12----------|--12--10--12--13--12----------|
----------------------12------|----------------------12------|
------------------------------|------------------------------|
------------------------------|------------------------------|
------------------------------|------------------------------|


                                                              
------------------------------|------------------------------|
--12--10--12--10--12----------|--12--10--12--10--12----------|
----------------------12------|----------------------12------|
------------------------------|------------------------------|
------------------------------|------------------------------|
------------------------------|------------------------------|


                                                              
------------------------------|------------------------------|
--12--10--12--10--12----------|--12--10--12--13--12----------|
----------------------12------|----------------------12------|
------------------------------|------------------------------|
------------------------------|------------------------------|
------------------------------|------------------------------|


                                                              
------------------------------|------------------------------|
--12--10--12--10--12----------|--12--10--12--10--12----------|
----------------------12------|----------------------12------|
------------------------------|------------------------------|
------------------------------|------------------------------|
------------------------------|------------------------------|


                                                                
------------------------------|-------------------------------||
--12--10--12--10--12----------|--12--10--12--10--12-----------||
----------------------12------|----------------------12------*||
------------------------------|------------------------------*||
------------------------------|-------------------------------||
------------------------------|-------------------------------||


                                                                             
--------------------------------||-----------------------|
--12--10--12--10--12------------||-----------------------|
----------------------12--------||*----------------------|
--------------------------------||*----------------------|
--------------------------x-----||--7----------9--10--7--|
--------------------------------||-----------------------|


------------------|----------------------------|
------------------|----------------------------|
------------------|----------------------------|
------------------|--7---------7---------7--9--|
------------------|-----9--10-----9--10--------|
------------------|----------------------------|

                                                          
-----------------------------|----------------------|
-----------------------------|----------------------|
-----------------------------|----------------------|
------7--9--10--9--7---------|----------------------|
--10------------------10-----|-7----------9--10--7--|
-----------------------------|----------------------|

[ Tab from: http://www.guitartabs.cc/tabs/i/iron_maiden/the_wicker_man_tab_ver_7.html ]
                                                                           
--------------0--0--|--12--10--0--0--14--12--0--0--|
--------------------|------------------------------|
--------------------|------------------------------|
--------------------|------------------------------|
--------------------|------------------------------|
--------------------|------------------------------|


                                                                   
--0--14--15--17--15--14----------||--------------------|
-------------------------17------||----------10b-------|
--------------------------------*||--------------------|
--------------------------------*||--------------------|
---------------------------------||--------------------|
---------------------------------||--------------------|


                                                                                
--------------7-8-7-10-7-|--------------------------------|
-------------------------|--10--12--8--12--10--12--8--10--|
-------------------------|--------------------------------|
-------------------------|--------------------------------|
-------------------------|--------------------------------|
-------------------------|--------------------------------|


                                                      
-------------------------|------7--------------------|
--10--0--------------10b-|---------7--10--10--7--10--|
---------9----8----------|---------------------------|
-------------------------|---------------------------|
-------------------------|---------------------------|
-------------------------|---------------------------|


                                                                               
--------------------------|----------------------------|----------------------|
--9--7-----9----7---------|----------------------------|----------------------|
--------9-----------------|----------------------------|----------------------|
--------------------------|--7------------7------------|-----------------7-10-|
-------------------9--10--|-----10--9--7-----10--9--7--|--6-------------------|
--------------------------|----------------------------|----------------------|


                                                                               
----------------------------------------|-------------------------------------|
----------------------------------------|--7-------------------7--------------|
----------------------------------------|-----8-------------8-----8-----------|
--7------------------7------------------|--------10--7--10-----------10--7----|
-----9--7------7--9-----9--7------7--9--|-------------------------------------|
-----------11-----------------11--------|-------------------------------------|


                                                                      
--------------------------------|------------------------------------|
--------------------------------|------------------------------------|
--------------------------------|--12t0-4-12t0-4-12t0-4-12t0-4-12----|
--10--7------------7--10--------|------------------------------------|
---------9------9---------------|------------------------------------|
------------11------------------|------------------------------------|


                                                   
----------16--17--19--20--19--17------19----------|
--17--19--------------------------20------20--19--|
--------------------------------------------------|
--------------------------------------------------|
--------------------------------------------------|
--------------------------------------------------|


                                                  
--------------17------------------------------0--|
--17--19--20------20--19--17--20--19--17---------|
------------------------------------------20-----|
-------------------------------------------------|
-------------------------------------------------|
-------------------------------------------------|


                                                                                
--------------17--19--20--19--17------17----------|----------------------------|
--17--19--20----------------------20------20--17--|--17--15--------------------|
--------------------------------------------------|----------17--16--16--------|
--------------------------------------------------|----------------------------|
--------------------------------------------------|----------------------------|
--------------------------------------------------|----------------------------|


                                                                          
|------------------------|------------------|----------------------------|
|------------------------|------------------|----------------------------|
|*-----------------------|------------------|----------------------------|
|*-----------------------|------------------|--7---------7---------7--9--|
|---7----------9--10--7--|------------------|-----9--10-----9--10--------|
|------------------------|------------------|----------------------------|


                                                                         
-----------------------------|----------------------|----------------0--|
-----------------------------|----------------------|-------------------|
-----------------------------|----------------------|-------------------|
------7--9--10--9--7---------|----------------------|-------------------|
--10------------------10--7--|------------9--10--7--|-------------------|
-----------------------------|----------------------|-------------------|


                                                                  
--12--10--0--0--14--12--0--0--|--0--14--15--17--15--14----------||
------------------------------|-------------------------17------||
------------------------------|--------------------------------*||
------------------------------|--------------------------------*||
------------------------------|-----------------------------7---||
------------------------------|---------------------------------||


                                                               
--0--14--15--17--15--14------||-------------------------------|
-----------------------------||---12--10--12--10--12----------|
-----------------------------||*----------------------12------|
-----------------------------||*------------------------------|
-----------------------------||-------------------------------|
-----------------------------||-------------------------------|


                                                              
------------------------------|------------------------------|
--12--10--12--10--12----------|--12--10--12--10--12----------|
----------------------12------|----------------------12------|
------------------------------|------------------------------|
------------------------------|------------------------------|
------------------------------|------------------------------|


                                                              
------------------------------|------------------------------|
--12--10--12--13--12----------|--12--10--12--10--12----------|
----------------------12------|----------------------12------|
------------------------------|------------------------------|
------------------------------|------------------------------|
------------------------------|------------------------------|


                                                              
------------------------------|------------------------------|
--12--10--12--10--12----------|--12--10--12--10--12----------|
----------------------12------|----------------------12------|
------------------------------|------------------------------|
------------------------------|------------------------------|
------------------------------|------------------------------|


                                                              
------------------------------|------------------------------|
--12--10--12--13--12----------|--12--10--12--10--12----------|
----------------------12------|----------------------12------|
------------------------------|------------------------------|
------------------------------|------------------------------|
------------------------------|------------------------------|


                                                              
------------------------------|------------------------------|
--12--10--12--10--12----------|--12--10--12--10--12----------|
----------------------12------|----------------------12------|
------------------------------|------------------------------|
------------------------------|------------------------------|
------------------------------|------------------------------|


                                                              
------------------------------|------------------------------|
--12--10--12--13--12----------|--12--10--12--10--12----------|
----------------------12------|----------------------12------|
------------------------------|------------------------------|
------------------------------|------------------------------|
------------------------------|------------------------------|


                                                              
------------------------------|------------------------------|
--12--10--12--10--12----------|--12--10--12--10--12----------|
----------------------12------|----------------------12------|
------------------------------|------------------------------|
------------------------------|------------------------------|
------------------------------|------------------------------|


                                                                
-------------------------------||------------------------------|
--12--10--12--10--12-----------||--12--10--12--10--12----------|
----------------------12------*||----------------------12------|
------------------------------*||------------------------------|
-------------------------------||------------------------------|
-------------------------------||------------------------------|


                                                  C5                       
|-----------------------|----------------------|--------------------------|
|-----------------------|----------------------|--------------------------|
|*--9----9----9----9----|--9----9----9----9----|--------------------------|
|*--9----9----9----9----|--9----9----9----9----|--10----10----10----10----|
|---7----7----7----7----|--7----7----7----7----|--10----10----10----10----|
|-----------------------|----------------------|--8-----8-----8-----8-----|


  C5                         G5                       
--------------------------|--------------------------|
--------------------------|--------------------------|
--------------------------|--12----12----12----12----|
--10----10----10----10----|--12----12----12----12----|
--10----10----10----10----|--10----10----10----10----|
--8-----8-----8-----8-----|--------------------------|


  G5                         D5                     D5                     
--------------------------|----------------------|-----------------------||
--------------------------|----------------------|-----------------------||
--12----12----12----12----|--7----7----7----7----|--7----7----7----7----*||
--12----12----12----12----|--7----7----7----7----|--7----7----7----7----*||
--10----10----10----10----|--5----5----5----5----|--5----5----5----5-----||
--------------------------|----------------------|-----------------------||


                                        
-------------------|------------------||
-------------------|------------------||
--7----------------|------------------||
--7----------------|------------------||
--5----------------|------------------||
-------------------|------------------||
Comments