Iron Maiden - The Wicker Man Chords & Tabs

 

The Wicker Man Chords & Tabs

Iron Maiden Chords & Tabs

Version: 6 Type: Tab 0 ratings
1 star 2 stars 3 stars 4 stars 5 stars
comments

The Wicker Man Tab

-------------------------------------------------------------------------------
			     THE WICKER MAN - Iron Maiden
-------------------------------------------------------------------------------
This is how I play the song, I don't know the solo, so you have to try to
figure it out.
By: Josh E. (godsmack_1313@hotmail.com)

Intro:
Guitar 1:
e|------------------------------------------------------|
B|------------------------------------------------------|
G|--9-9-------9-9-------9-9-------5-12------------------| x4
D|--9-9-------9-9-------9-9-------5-12------------------|
A|--7-7-7-7-7-7-7-7-7-7-7-7-7-7-7-3-10------------------|
E|0-----0-0-0-----0-0-0-----0-0-0-----------------------|
       PM...	  PM...     PM...   
Guitar 2: (comes in after guitar 1's riff played once)
e|------------------------------------------------------|
B|------------------------------------------------------|
G|--9-9-------9-9-------9-9-------5-12------------------|
D|--9-9-------9-9-------9-9-------5-12------------------| x3
A|--7-7-------7-7-------7-7-------3-10------------------|
E|------------------------------------------------------|

Verse 1: 
Guitars 1 & 2:
e|------------------------------------------------------|
B|------------------------------------------------------|
G|-9-9-----------9-9-----------9-9-----------5-5-12-----|
D|-9-9-----------9-9-----------9-9-----------5-5-12-----| x4
A|-7-7-----------7-7-----------7-7-----------3-3-10-----|
E|-----0-0-0-0-0-----0-0-0-0-0-----0-0-0-0-0------------|

Pre-Chorus:
Guitars 1 & 2:
e|---------------------------------------------------------------------------|
B|---------------------------------------------------------------------------|
G|-7---7---9---5--12-9-7---7---9---5--7--7---7---9---5--12-9-7---7---9---5--7|
D|-7---7---9---5--12-9-7---7---9---5--7--7---7---9---5--12-9-7---7---9---5--7| x2
A|-5---5---7---3--10-7-5---5---7---3--5--5---5---7---3--10-7-5---5---7---3--5|
E|---------------------------------------------------------------------------|

Chorus:
Guitar 1: 
e|-----------------------------------------------------------------|
B|-----------------------------------------------------------------|
G|-9-9-9-9-9-9--5-5-5-5-5-5----------------------------9-9-9-9-9-9-|
D|-9-9-9-9-9-9--5-5-5-5-5-5--5-5-5-5-5-5--7-7-7-7-7-7--9-9-9-9-9-9-|
A|-7-7-7-7-7-7--3-3-3-3-3-3--5-5-5-5-5-5--7-7-7-7-7-7--7-7-7-7-7-7-|
E|---------------------------3-3-3-3-3-3--5-5-5-5-5-5--------------|

e|----------------------------------------------|
B|----------------------------------------------|
G|-12-12-12-12-12-12--5-5-5-5-5-5---------------|
D|-12-12-12-12-12-12--5-5-5-5-5-5--5-5-5--7-7-7-|
A|-10-10-10-10-10-10--3-3-3-3-3-3--5-5-5--7-7-7-|
E|---------------------------------3-3-3--5-5-5-|

e|-----------------------------------------------------------------|
B|-----------------------------------------------------------------|
G|-9-9-9-9-9-9--5-5-5-5-5-5----------------------------9-9-9-9-9-9-|
D|-9-9-9-9-9-9--5-5-5-5-5-5--5-5-5-5-5-5--7-7-7-7-7-7--9-9-9-9-9-9-|
A|-7-7-7-7-7-7--3-3-3-3-3-3--5-5-5-5-5-5--7-7-7-7-7-7--7-7-7-7-7-7-|
E|---------------------------3-3-3-3-3-3--5-5-5-5-5-5--------------|
[ Tab from: http://www.guitartabs.cc/tabs/i/iron_maiden/the_wicker_man_tab_ver_6.html ]
e|----------------------------------------------|
B|----------------------------------------------|
G|-12-12-12-12-12-12--5-5-5-5-5-5---------------|
D|-12-12-12-12-12-12--5-5-5-5-5-5--5-5-5--7-7-7-|
A|-10-10-10-10-10-10--3-3-3-3-3-3--5-5-5--7-7-7-|
E|---------------------------------3-3-3--5-5-5-|
Guitar 2:
e|---------------------------------------------------------------------------|
B|---------------------------------------------------------------------------|
G|-16-14-16-14-16-12--16-14-16-14-16-12--16-14-16-14-16-12--16-14-16-17-16-12|
D|---------------------------------------------------------------------------| x4
A|---------------------------------------------------------------------------|
E|---------------------------------------------------------------------------|

Verse 2:
Guitars 1 & 2:
e|------------------------------------------------------|
B|------------------------------------------------------|
G|-9-9-----------9-9-----------9-9-----------5-5-12-----|
D|-9-9-----------9-9-----------9-9-----------5-5-12-----| x4
A|-7-7-----------7-7-----------7-7-----------3-3-10-----|
E|-----0-0-0-0-0-----0-0-0-0-0-----0-0-0-0-0------------|

Pre-Chorus:
Guitars 1 & 2:
e|---------------------------------------------------------------------------|
B|---------------------------------------------------------------------------|
G|-7---7---9---5--12-9-7---7---9---5--7--7---7---9---5--12-9-7---7---9---5--7|
D|-7---7---9---5--12-9-7---7---9---5--7--7---7---9---5--12-9-7---7---9---5--7| x2
A|-5---5---7---3--10-7-5---5---7---3--5--5---5---7---3--10-7-5---5---7---3--5|
E|---------------------------------------------------------------------------|

Chorus:
Guitar 1: 
e|-----------------------------------------------------------------|
B|-----------------------------------------------------------------|
G|-9-9-9-9-9-9--5-5-5-5-5-5----------------------------9-9-9-9-9-9-|
D|-9-9-9-9-9-9--5-5-5-5-5-5--5-5-5-5-5-5--7-7-7-7-7-7--9-9-9-9-9-9-|
A|-7-7-7-7-7-7--3-3-3-3-3-3--5-5-5-5-5-5--7-7-7-7-7-7--7-7-7-7-7-7-|
E|---------------------------3-3-3-3-3-3--5-5-5-5-5-5--------------|

e|----------------------------------------------|
B|----------------------------------------------|
G|-12-12-12-12-12-12--5-5-5-5-5-5---------------|
D|-12-12-12-12-12-12--5-5-5-5-5-5--5-5-5--7-7-7-|
A|-10-10-10-10-10-10--3-3-3-3-3-3--5-5-5--7-7-7-|
E|---------------------------------3-3-3--5-5-5-|

e|-----------------------------------------------------------------|
B|-----------------------------------------------------------------|
G|-9-9-9-9-9-9--5-5-5-5-5-5----------------------------9-9-9-9-9-9-|
D|-9-9-9-9-9-9--5-5-5-5-5-5--5-5-5-5-5-5--7-7-7-7-7-7--9-9-9-9-9-9-|
A|-7-7-7-7-7-7--3-3-3-3-3-3--5-5-5-5-5-5--7-7-7-7-7-7--7-7-7-7-7-7-|
E|---------------------------3-3-3-3-3-3--5-5-5-5-5-5--------------|

e|----------------------------------------------|
B|----------------------------------------------|
G|-12-12-12-12-12-12--5-5-5-5-5-5---------------|
D|-12-12-12-12-12-12--5-5-5-5-5-5--5-5-5--7-7-7-|
A|-10-10-10-10-10-10--3-3-3-3-3-3--5-5-5--7-7-7-|
E|---------------------------------3-3-3--5-5-5-|
Guitar 2:
e|---------------------------------------------------------------------------|
B|---------------------------------------------------------------------------|
G|-16-14-16-14-16-12--16-14-16-14-16-12--16-14-16-14-16-12--16-14-16-17-16-12|
D|---------------------------------------------------------------------------| x4
A|---------------------------------------------------------------------------|
E|---------------------------------------------------------------------------|
 After that comes the solo which i don't know...

===============================================================================
Comments