Iron Maiden - The Wicker Man Chords & Tabs

 

The Wicker Man Chords & Tabs

Iron Maiden Chords & Tabs

Version: 5 Type: Tab 0 ratings
1 star 2 stars 3 stars 4 stars 5 stars
comments

The Wicker Man Tab

#----------------------------------PLEASE NOTE--------------------------------#
#This file is the author's own work and represents their interpretation of the#
#song. You may only use this file for private study, scholarship, or research.#
#-----------------------------------------------------------------------------#
#-- File created with Instab - http://www.pconline.com/~smcarey/instab.html --#
#-----------------------------------------------------------------------------#

Author/Artist: Iron Maiden
Title: The Wicker Man
Album: Brave New World
Transcribed by: Swen O. Heiland
Email: sonofagun@t-online.de



---------------------------------------------------------------------------|--
---------------------------------------------------------------------------|--
-9--9----------------9--9--------------9--9---------------5--5---12--12----|--
-9--9----------------9--9--------------9--9---------------5--5---12--12----|--
-7--7----------------7--7--------------7--7---------------3--3---10--10----|--
---------0-0-0-0-0----------0-0-0-0-0---------0-0-0-0-0--------------------|--
 Intro/Verse [4x]                                                             

-------------------------------------|-------------------------------------|--
-------------------------------------|-------------------------------------|--
-7-------5-----------12--10--9-------|-7-------5---------------------------|--
-7-------5-----------12--10--9-------|-7-------5----------5--5---7--7------|--
-5-------3-----------10---9--7-------|-5-------3----------5--5---7--7------|--
-------------------------------------|--------------------3--3---5--5------|--
 Bridge [2x] ['You watch the world exploding...']                             

---------------------------------------------------------------------------|--
---------------------------------------------------------------------------|--
-9--9--9--9----------5--5--5--5-------------------------------2--2--2--2---|--
-9--9--9--9----------5--5--5--5-----------5--5--5--5----------2--2--2--2---|--
-7--7--7--7----------3--3--3--3-----------5--5--5--5----------0--0--0--0---|--
------------------------------------------3--3--3--3-----------------------|--
 Chorus [4x] ['Your time will come...']                                       

---------------------------------------------------------------------------|--
-12-10-12-10-12------12-10-12-10-------12-10-12-10-------12-10-12-13-12-10-|--
----------------12---------------12----------------12----------------------|--
---------------------------------------------------------------------------|--
---------------------------------------------------------------------------|--
---------------------------------------------------------------------------|--
 Chorus Melody [4x]                                                           
[ Tab from: http://www.guitartabs.cc/tabs/i/iron_maiden/the_wicker_man_tab_ver_5.html ]
-------------------------|-------------------------------------------------|--
-------------------------|-------------------------------------------------|--
-------------------------|-------------------------------------------------|--
-------------------------|----------2--------2-4-----2--4-5-4-2------------|--
-2v----2--4--5-----2v----|-2---4-5------4-5-------5--------------5---------|--
-------------------------|-------------------------------------------------|--
 Interlude [2x]                                      

-------------------------|-0-12-0-10-0-12-0-14-0-12-0-14-15-14-15-17-15-14-|--
-------------------------|-------------------------------------------------|--
-------------------------|-------------------------------------------------|--
-------------------------|-------------------------------------------------|--
-2v----2--4--5-----2v----|-------------------------------------------------|--
-------------------------|-------------------------------------------------|--
                                       

---------------------------------------------------------------------------|--
---------------------------------------------------------------------------|--
-9--9--9----9--9--9------5--5--5---------------7--7------------------------|--
-9--9--9----9--9--9------5--5--5-----5--5------7--7------------------------|--
-7--7--7----7--7--7------3--3--3-----5--5------5--5------------------------|--
-------------------------------------3--3----------------------------------|--
 Rythm for Interlude [4x]                                                        

---------------------------------------------------------------------------|--
---------------------------------------------------------------------------|--
-4--------4-----2--------2----------------------2--------2-----------------|--
-4--4--4--4-----2--2--2--2------5--------5------2--2--2--2-----------------|--
-2--2--2--2-----0--0--0--0------5--5--5--5------0--0--0--0-----------------|--
--------------------------------3--3--3--3---------------------------------|--
 Rythm for Solo [2x]                                                        

---------------------------------------------------------------------------|--
---------------------------------------------------------------------------|--
-4--------4-----2--------2----------------------5--------5-----------------|--
-4--4--4--4-----2--2--2--2------5--------5------5--5--5--5-----------------|--
-2--2--2--2-----0--0--0--0------5--5--5--5------3--3--3--3-----------------|--
--------------------------------3--3--3--3---------------------------------|--
                                                                              

---------------------------------------------------------------------------|--
---------------------------------------------------------------------------|--
-9--9--9-----------5--5--5----------------------------7--7--7--------------|--
-9--9--9-----------5--5--5-----------5--5--5----------7--7--7--------------|--
-7--7--7-----------3--3--3-----------5--5--5----------5--5--5--------------|--
-------------------------------------3--3--3-------------------------------|--
 Outro [4x]                                                                   

-------------------------------------|-------------------------------------|--
-------------------------------------|-------------------------------------|--
-------------------------------------|-------------------------------------|--
-5--4v--5--7v-------5--4v--5--7v-----|-5--4v--5--7v------5--4v-------------|--
-------------------------------------|--------------------------7--5v------|--
-------------------------------------|-------------------------------------|--
 Outro Melody [2x]


Back

Comments