Iron Maiden - The Wicker Man Live Chords & Tabs

 

The Wicker Man Live Chords & Tabs

Iron Maiden Chords & Tabs

Version: 1 Type: Tab 0 ratings
1 star 2 stars 3 stars 4 stars 5 stars
comments

The Wicker Man Live Tab

   
THE WICKER MAN(Rock in Rio)

Iron Maiden(Smith/Harris/Dickinson)

transcrbed by sveinung
Email:sveinungborvik@hotmail.com

h:hammer on
p:pull of
b:bend
P.M.:palm muted
v:vibrato

 Adrian Smith
E------------------10----7---7----7---7----------------------------------|
B--12v--12v--12v------10---8---10---8---10-------------10bF-10-10-8-10-8-|
G-------------------------------------------9-(9)--8v--------------------|
D------------------------------------------------------------------------|
A---------------------------------------------P.M.-----------------------|
E------------------------------------------------------------------------|


E----------------------------------------------------------------------------|
B---------------------------------------------4h7p4h7p4h7p4h7p4h7------------|
G-9-8-9-8-9-8vv--------------------------------------------------------------|
D---------------------7---------9-7------------------------------------------|
A----------------7-10---10-7-10-----10-7-6-----------------------------------|
E----------------------------------------------------------------------------|

[ Tab from: http://www.guitartabs.cc/tabs/i/iron_maiden/the_wicker_man_live_tab.html ]
E----------------------------------------------------------------------------|
B----5h8p5h8p5h8p5h8p5h8p5h8------4h7p4h7p4h7p4h7p4h7p4h7--------------------|
G----------------------------------------------------------------------------|
D----------------------------------------------------------------------------|
A----------------------------------------------------------------------------|
E----------------------------------------------------------------------------|


E-----------------------------------------17-19-20-19-17----17---------------|
B--7h10p7h10p7h10p7h10p7h10---------19-20----------------20------------------|
G----------------------------------------------------------------------------|
D----------------------------------------------------------------------------|
A----------------------------------------------------------------------------|
E----------------------------------------------------------------------------|


E-------------17--------------------------17-19-20-19-17----17-------------|
B-19-17-19-20----20-19-17-19-17-16--19-20----------------20----19-17-16-16-|
G--------------------------------------------------------------------------|
D--------------------------------------------------------------------------|
A--------------------------------------------------------------------------|
E--------------------------------------------------------------------------|

E-------------|
B-------------|
G--16-16vvvv--|
D-------------|
A-------------|
E-------------|
Comments