Iron Maiden - The Wicker Man Chords & Tabs

 

The Wicker Man Chords & Tabs

Iron Maiden Chords & Tabs

Version: 6 Type: Bass Tab 0 ratings
1 star 2 stars 3 stars 4 stars 5 stars
comments

The Wicker Man Bass Tab

Wicker Man by Iron Maiden
Standard Tuning
Bass Starts at (0.05)

(Intro)
G:----------|----------|----------|----------|
D:----------|----------|----------|----------|
A:----------|----------|----------|------10--|
E:---0--0---|---0--0---|---0--0---|--8-------|

G:9--9------|9--9------|9--9------|---5------|
D:9--9------|9--9------|9--9------|---5--5---|  x6
A:7--7-77777|7--7-77777|7--7-77777|---3--5---|
E:----------|----------|----------|------3---|

G:7---------|----------|5---------|12-12-11-9|
D:7---------|----------|5---------|12-12-11-9|
A:5--5--5--5|5--5--5--5|3--3--3--3|10-10-9--7|
E:----------|----------|----------|----------|


G:7---------|----------|5---------|7--7------|
D:7---------|----------|5---------|5--5--3--3|
A:5--5--5--5|5--5--5--5|3--3--3--3|------5--5|
E:----------|----------|----------|----------|

G:7---------|----------|5---------|12-12-11-9|
D:7---------|----------|5---------|12-12-11-9|
A:5--5--5--5|5--5--5--5|3--3--3--3|10-10-9--7|
E:----------|----------|----------|----------|


G:7---------|----------|5---------|7--7------|
D:7---------|----------|5---------|5--5--3--3|
A:5--5--5--5|5--5--5--5|3--3--3--3|------5--5|
E:----------|----------|----------|----------|

(Chorus)
G:4---------|----------|----------|----------|
D:2--2-2-2-2|5---------|----------|----------|
A:----------|3--3-3-3-3|5---------|7---------|
E:----------|----------|3--3-3-3-3|5--5-5-5-5|

G:4---------|7---------|----------|----------|
D:2--2-2-2-2|5--5-5-5-5|5---------|----------|
A:----------|----------|3--3-3-3-3|5---------|
E:----------|----------|----------|3--3-3-3-3|

G:4---------|----------|----------|----------|
D:2--2-2-2-2|5---------|----------|----------|
A:----------|3--3-3-3-3|5---------|7---------|
E:----------|----------|3--3-3-3-3|5--5-5-5-5|

G:4---------|7---------|----------|----------|
D:2--2-2-2-2|5--5-5-5-5|5---------|----------|
A:----------|----------|3--3-3-3-3|5---------|
E:----------|----------|----------|3--3-3-3-3|

G:9--9------|9--9------|9--9------|---5------|
D:9--9------|9--9------|9--9------|---5--5---|  x4
A:7--7-77777|7--7-77777|7--7-77777|---3--5---|
E:----------|----------|----------|------3---|

G:7---------|----------|5---------|12-12-11-9|
D:7---------|----------|5---------|12-12-11-9|
A:5--5--5--5|5--5--5--5|3--3--3--3|10-10-9--7|
E:----------|----------|----------|----------|

G:7---------|----------|5---------|7--7------|
D:7---------|----------|5---------|5--5--3--3|
A:5--5--5--5|5--5--5--5|3--3--3--3|------5--5|
E:----------|----------|----------|----------|

G:7---------|----------|5---------|12-12-11-9|
D:7---------|----------|5---------|12-12-11-9|
A:5--5--5--5|5--5--5--5|3--3--3--3|10-10-9--7|
E:----------|----------|----------|----------|

[ Tab from: http://www.guitartabs.cc/tabs/i/iron_maiden/the_wicker_man_btab_ver_6.html ]
G:7---------|----------|5---------|7--7------|
D:7---------|----------|5---------|5--5--3--3|
A:5--5--5--5|5--5--5--5|3--3--3--3|------5--5|
E:----------|----------|----------|----------|

G:4---------|----------|----------|----------|
D:2--2-2-2-2|5---------|----------|----------|
A:----------|3--3-3-3-3|5---------|7---------|
E:----------|----------|3--3-3-3-3|5--5-5-5-5|

G:4---------|7---------|----------|----------|
D:2--2-2-2-2|5--5-5-5-5|5---------|----------|
A:----------|----------|3--3-3-3-3|5---------|
E:----------|----------|----------|3--3-3-3-3|

G:4---------|----------|----------|----------|
D:2--2-2-2-2|5---------|----------|----------|
A:----------|3--3-3-3-3|5---------|7---------|
E:----------|----------|3--3-3-3-3|5--5-5-5-5|

G:4---------|7---------|----------|----------|
D:2--2-2-2-2|5--5-5-5-5|5---------|----------|
A:----------|----------|3--3-3-3-3|5---------|
E:----------|----------|----------|3--3-3-3-3|

G:---4--4---|----------|---4--4---|----------|
D:---2--2---|---5------|---2--2---|---5------|  x2
A:----------|---3--5---|----------|---3--5---|
E:----------|------3---|----------|------3---|

G:----------|----------|----------|----------|
D:4---------|----------|----------|----------|
A:2--2-2-2-2|7---------|5---------|5---------|
E:----------|5--5-5-5-5|3--3-3-3-3|7--7-7-7-7|

G:----------|----------|----------|----------|
D:4---------|----------|----------|5---------|
A:2--2-2-2-2|7---------|5---------|3--3-3-3-3|
E:----------|5--5-5-5-5|3--3-3-3-3|----------|

G:----------|----------|----------|----------|
D:4---------|----------|----------|----------|
A:2--2-2-2-2|7---------|5---------|5---------|
E:----------|5--5-5-5-5|3--3-3-3-3|7--7-7-7-7|

G:----------|----------|----------|----------|
D:4---------|----------|----------|5---------|
A:2--2-2-2-2|7---------|5---------|3--3-3-3-3|
E:----------|5--5-5-5-5|3--3-3-3-3|----------|

G:---4--4---|----------|---4--4---|----------|
D:---2--2---|---5------|---2--2---|---5------|  x2
A:----------|---3--5---|----------|---3--5---|
E:----------|------3---|----------|------3---|

G:4---------|----------|----------|----------|
D:2--2-2-2-2|5---------|----------|----------|_
A:----------|3--3-3-3-3|5---------|7---------| |
E:----------|----------|3--3-3-3-3|5--5-5-5-5| |
                                               |__x4
G:4---------|7---------|----------|----------| |
D:2--2-2-2-2|5--5-5-5-5|5---------|----------|_|
A:----------|----------|3--3-3-3-3|5---------|
E:----------|----------|----------|3--3-3-3-3|

(Outro)
G:---4------|----------|----------|----------|
D:---2------|---5------|----------|---7------|  x4 (let last 
A:----------|---3------|---5------|---5------|      note ring)
E:----------|----------|---3------|----------|

Thanks, please rate it after you learn it.
Tabbed by:
_TheBassist01_
Comments