Iron Maiden - The Wicker Man Chords & Tabs

 

The Wicker Man Chords & Tabs

Iron Maiden Chords & Tabs

Version: 5 Type: Bass Tab 0 ratings
1 star 2 stars 3 stars 4 stars 5 stars
comments

The Wicker Man Bass Tab

I am really a guitarist not a bassist and this is my first bass tab so please rate it or 
it and stuff like that

Intro
--------------------------------|
--------------------------------|
--7-7----7-7----7-7----3----10--| x1
--------------------------------|

Verse
------------------------------------------------|
------------------------------------------------|
--7-7---------7-7---------7-7----------3----10--| x4
-----0-0-0-0-0---0-0-0-0-0---0-0-0-0-0----------|

Pre-Chorus
--------------------------------------------|
--------------------------------------------|
--5-5-5-5-5-5-5-5--3-3-3-3--10-10-10--9--7--| x1
--------------------------------------------|

--------------------------------------|
--------------------------------------|
--5-5-5-5-5-5-5-5--3-3-3-3-------5-5--| x1
----------------------------3-3-------|

--------------------------------------------|
--------------------------------------------|
--5-5-5-5-5-5-5-5--3-3-3-3--10-10-10--9--7--| x1
--------------------------------------------|

--------------------------------------|
--------------------------------------|
--5-5-5-5-5-5-5-5--3-3-3-3-------5-5--| x1
----------------------------3-3-------|

Chorus
----------------------------------|
----------------------------------|
--7-7-7-7--3-3-3-3-------5-5-5-5--| x1
------------------3-3-3-3---------|

-----------------------------------------------|
-----------------------------------------------|
--7-7-7-7--10-10-10-10--3-3-3-3-------5-5-5-5--| x1
-------------------------------3-3-3-3---------|

----------------------------------|
----------------------------------|
--7-7-7-7--3-3-3-3-------5-5-5-5--| x1
------------------3-3-3-3---------|

-----------------------------------------------|
-----------------------------------------------|
--7-7-7-7--10-10-10-10--3-3-3-3-------5-5-5-5--| x1
-------------------------------3-3-3-3---------|

Verse
------------------------------------------------|
------------------------------------------------|
--7-7---------7-7---------7-7----------3----10--| x4
-----0-0-0-0-0---0-0-0-0-0---0-0-0-0-0----------|

Pre-Chorus
--------------------------------------------|
--------------------------------------------|
--5-5-5-5-5-5-5-5--3-3-3-3--10-10-10--9--7--| x1
--------------------------------------------|

--------------------------------------|
--------------------------------------|
--5-5-5-5-5-5-5-5--3-3-3-3-------5-5--| x1
----------------------------3-3-------|
[ Tab from: http://www.guitartabs.cc/tabs/i/iron_maiden/the_wicker_man_btab_ver_5.html ]
--------------------------------------------|
--------------------------------------------|
--5-5-5-5-5-5-5-5--3-3-3-3--10-10-10--9--7--| x1
--------------------------------------------|

--------------------------------------|
--------------------------------------|
--5-5-5-5-5-5-5-5--3-3-3-3-------5-5--| x1
----------------------------3-3-------|

Chorus
----------------------------------|
----------------------------------|
--7-7-7-7--3-3-3-3-------5-5-5-5--| x1
------------------3-3-3-3---------|

-----------------------------------------------|
-----------------------------------------------|
--7-7-7-7--10-10-10-10--3-3-3-3-------5-5-5-5--| x1
-------------------------------3-3-3-3---------|

----------------------------------|
----------------------------------|
--7-7-7-7--3-3-3-3-------5-5-5-5--| x1
------------------3-3-3-3---------|

-----------------------------------------------|
-----------------------------------------------|
--7-7-7-7--10-10-10-10--3-3-3-3-------5-5-5-5--| x1
-------------------------------3-3-3-3---------|

Verse
------------------------------------------------|
------------------------------------------------|
--7-7---------7-7---------7-7----------3----10--| x4
-----0-0-0-0-0---0-0-0-0-0---0-0-0-0-0----------|

Solo
--------------------------------------|
--------------------------------------|
--7-7-7-7--5-5-5-5--3-3-3-3--5-5-5-5--| x4
--------------------------------------|

Verse
------------------------------------------------|
------------------------------------------------|
--7-7---------7-7---------7-7----------3----10--| x4
-----0-0-0-0-0---0-0-0-0-0---0-0-0-0-0----------|

Chorus x2
----------------------------------|
----------------------------------|
--7-7-7-7--3-3-3-3-------5-5-5-5--| x1
------------------3-3-3-3---------|

-----------------------------------------------|
-----------------------------------------------|
--7-7-7-7--10-10-10-10--3-3-3-3-------5-5-5-5--| x1
-------------------------------3-3-3-3---------|

----------------------------------|
----------------------------------|
--7-7-7-7--3-3-3-3-------5-5-5-5--| x1
------------------3-3-3-3---------|

-----------------------------------------------|
-----------------------------------------------|
--7-7-7-7--10-10-10-10--3-3-3-3-------5-5-5-5--| x1
-------------------------------3-3-3-3---------|

Outro
------------------------------------------------------------------|
------------------------------------------------------------------|
--7-7-7-7-7-7-7-7--3-3-3-3-3-3-3-3---------------5-5-5-5-5-5-5-5--| x4
----------------------------------3-3-3-3-3-3-3-3-----------------|
Comments