Iron Maiden - The Wicker Man Chords & Tabs

 

The Wicker Man Chords & Tabs

Iron Maiden Chords & Tabs

Version: 3 Type: Bass Tab 0 ratings
1 star 2 stars 3 stars 4 stars 5 stars
comments

The Wicker Man Bass Tab

   
Iron Maiden
The Wicker Man
Tabbed by Dan (argybahji@hotmail.com)

[Intro]
G|-----------------------------------------------
D|-----------------------------------5-5---------
A|-7-7-------7-7-------7-7-------3-3-------------
E|-----------------------------------------------

[Verse] ('Hand of fate is moving...')
G|-----------------------------------------------
D|-----------------------------------5-5---------
A|-7-7-77777-7-7-77777-7-7-77777-3-3-------------
E|-----------------------------------------------

[Pre-Chorus] ('You watch the world exploding...')
G|-----------------------------------------------
D|-0000-0000------555-4-2-0000-0000--------------
A|-----------3333-------------------3-3-3-3---3--
E|------------------------------------------3----

[Chorus] ('Your time will come...')
G|-----------------------------------------------------------
D|------------------------------------555555-----------------
A|-777777-333333---------------777777--------333333----------
E|---------------333333-555555----------------------333-555--

[Guitar Solo A]
G|-----------------------------------------------------------
D|-----------------------------------------------------------
A|-777777-777777-333333----55-777777-777777-333333----55-----
E|----------------------33-------------------------33--------

[Guitar Solo B]
G|-----------------------------------------------------------
D|-----------------------------------------------------------
A|-222222-000000--------000000-222222-000000--------333333---
E|---------------333333----------------------333333----------

[Outro] ('Woah-oh-oh-oh...')
G|-----------------------------------------------------------------
D|-----------------------------------------------------------------
A|-7-7-7-7-7-7-7-7-3-3-3-3-3-3-3-3-----------------5-5-5-5-5-5-5-5-
E|---------------------------------3-3-3-3-3-3-3-3-----------------


Structure
==================
Intro		x1
Verse		x6
Pre-Chorus	x2
Chorus		x2
Verse		x4
Pre-Chorus	x2
Chorus		x2
Guitar Solo A	x2
Guitar Solo B   x2
Guitar Solo A   x2
Chorus		x4
Outro		x4
===========Iron Maiden "The Wicker Man"
From the album "Brave New World"
[ Tab from: http://www.guitartabs.cc/tabs/i/iron_maiden/the_wicker_man_btab_ver_3.html ]
Enter after the guitar goes 1 time
G----------------------------------------------------------
D-2--2--2--2--2--2--0-5------------------------------------
A----------------------------------------------------------
E----------------------------------------------------------

Main Riff:
G----------------------------------------------------------0
D-2-2-2-2--2-2-2-2--2-2-2-2--0-3--2-2-2-2-2-2-2-2-2-2-2-2-0
A----------------------------------------------------------
E----------------------------------------------------------

You watch the world exploding:
G----------------------------------------------------------
D--0--2----5-5-3-2-0--2------------------------------------
A-------3---------------3--2-2--4-4------------------------
E----------------------------------------------------------

Your Time Will Come:
G----------------------------------------------------------
D--2-2-2-2-2-0-0-0-0-0-----------0-0-0-0-0----2-2-2-2-2----
A----------------------2-2-2-2-2---------------------------
E----------------------------------------------------------

G--0-0-0-0-0-----------------------------------------------
D------------0-0-0-0-0-------------------------------------
A----------------------2-2--4-4----------------------------
E----------------------------------------------------------

During Solo, Riff 1
G----------------------------------------------------------
D-2---2---0------------------------------------------------
A-----------22-4-------------------------------------------
E----------------------------------------------------------

Riff 2
G----------------------------------------------------------
D----------------------------------------------------------
A----------------------------------------------------------
E--7-7-7-7-7--5-5-5-5-5--3-3-3-3-3-5-5-5-5-5---------------

G----------------------------------------------------------
D----------------------------------------------------------
A----------------------------------------------------------
E--7-7-7-7-7--5-5-5-5-5--3-3-3-3-3--9-9-9-9-9--------------


Ending
G----------------------------------------------------------
D--2-2-2-2-2-2-0-0-0-0-0-----------0-0-0-0-0---------------
A------------------------2-2-2-2-2-------------------------
E----------------------------------------------------------

Order:
Intro
Main Riff
You Watch...
Your Time...
Main Riff
You Watch...
Your Time...
Riff 1
Riff 2
Riff 1
Your Time...2x
Ending

TAB BY: Ryan ???????
Q's or Comments reach me at: MetalMachine87@aol.com
Comments