Iron Maiden - The Unbeliever Chords & Tabs

 

The Unbeliever Chords & Tabs

Iron Maiden Chords & Tabs

Version: 1 Type: Tab 0 ratings
1 star 2 stars 3 stars 4 stars 5 stars
comments

The Unbeliever Tab

#----------------------------------PLEASE NOTE---------------------------------#
#This file is the author's own work and represents their interpretation of the #
#song. You may only use this file for private study, scholarship, or research. #
#------------------------------------------------------------------------------#
#


From wigren@skelleftea.mail.telia.com Sun May  4 11:04:32 1997
Date: Tue, 18 Mar 1997 15:18:04 +0100
From: wigren@skelleftea.mail.telia.com
To: Olga Guitar Tab 
Subject: Tab IRON MAIDEN The unbeliever




THE UNBELIEVER
Written by Steve Harris and Janick Gers.
Performed by IRON MAIDEN.
Taken from the album THE X FACTOR.

Transcribed by Oskar "The Seventh Son" Wigren.
E-mail me at wigren@skelleftea.mail.telia.com

Riff 1:
E-----------------------------------|----------------------------|
B-----------------------------------|----------------------------|
G----------9-7---7-----9---7---7-9--|---------9-7---7-----9-7----|
D------7-9-----9-----9---9---9------|-----7-9-----9-----9-----9--|
A-----------------------------------|----------------------------|
E--0--------------------------------|-0-0------------------------|

E-----------------------------------|-----------------------------|
B-----------------------------------|---------------------10-8----|
G----------9-7---7-----9---7---7-9--|---------9-7---7----------9--|
D------7-9-----9-----9---9---9------|-----7-9-----9-----9---------|
A-----------------------------------|-----------------------------|
E--0-0------------------------------|-0-0-------------------------|

Riff 2: (Overtones)
E----------------------------|----------------------------------------|
B----------------------------|----------------------------------------|
G---------------7--7---5--5--|---5--5--5-5-5--7--7--7-----------------|
D--------7-7-7---------------|------------------------7--7--7---------|
A--7--7----------------------|----------------------------------7--7--|
E----------------------------|----------------------------------------|

Verse:
E----------------------------------|--------------------------------------|
B----------------------------------|--------------------------------------|
G----------------------------------|--------------------------------------|
D----------------------5--4--------|--------------------------------------|
A----7-----------------------------|----5--7------------3--5--2--3--------|
E----------------------------------|--------------------------------------|


E----------------------------------|--------------------------------------|
B----------------------------------|--------------------------------------|
G----------------------------------|--------------------------------------|
D----------------------5--4--------|--------------------------------------|
A----7-----------------------------|----5--7------------3--5--2--3--2-----|
E----------------------------------|--------------------------------------|


E----------------------------------|--------------------------------------|
B----------------------------------|--------------------------------------|
G----------------------------------|--------------------------------------|
D----------------------5--4--------|--------------------------------------|
A----7-----------------------------|----5--7------------3--5--2--3--------|
E----------------------------------|--------------------------------------|


E----------------------------------|--------------------------------------|
B----------------------------------|--------------------------------------|
G----------------------------------|--------------------------------------|
D----------------------5--4--------|--------------------------------------|
A----7-----------------------------|--------------5--7--3--5--2--3--2-----|
E----------------------------------|--------------------------------------|

Chorus:
     All    my    life
    
E--------------|--------------|
B--0--0-0-0-0--|--0--0-0-0-0--|
G--2--2-2-2-2--|--4--4-4-4-4--|
D--2--2-2-2-2--|--5--5-5-5-5--|
A--0--0-0-0-0--|--0--0-0-0-0--|
E--------------|--------------|

   
E--------------|--------------|
B--0--0-0-0-0--|--0--0-0-0-0--|
G--4--4-4-4-4--|--2--2-2-2-2--|
D--5--5-5-5-5--|--2--2-2-2-2--|
A--0--0-0-0-0--|--0--0-0-0-0--|
E--------------|--------------|
[ Tab from: http://www.guitartabs.cc/tabs/i/iron_maiden/the_unbeliever_tab.html ]
Verse 2:
E----------------------------------|--------------------------------------|
B----------------------------------|--------------------------------------|
G----------------------------------|--------------------------------------|
D----------------------5--4--------|--------------------------------------|
A----7-----------------------------|----5--7------------3--5--2--3--------|
E----------------------------------|--------------------------------------|


E----------------------------------|--------------------------------------|
B----------------------------------|--------------------------------------|
G----------------------------------|--------------------------------------|
D----------------------5--4--------|--------------------------------------|
A----7-----------------------------|--------------5--7--3--5--2--3--2-----|
E----------------------------------|--------------------------------------|

Riff 3:
  
    
E--0--0-0-0-0--|--0--0-0-0-0--|
B--3--3-3-3-3--|--5--5-5-5-5--|
G--2--2-2-2-2--|--5--5-5-5-5--|
D--0--0-0-0-0--|--0--0-0-0-0--|
A--------------|--------------|
E--------------|--------------|

    
  
E--0--0-0-0-0--|--0--0-0-0-0--|
B--5--5-5-5-5--|--3--3-3-3-3--|
G--5--5-5-5-5--|--2--2-2-2-2--|
D--0--0-0-0-0--|--0--0-0-0-0--|
A--------------|--------------|
E--------------|--------------|

Riff 4:
E---------------|---------------------|
B---------------|---------------------|
G---------------|---------------------|
D------5-4------|--5---4-----5-4------|
A--7-7-----5-7--|--------5-7-----5-7--|
E---------------|---------------------|

E---------------|-------------------|
B---------------|-------------------|
G---------------|-------------------|
D------5-4------|--5---4-----7-5-4--|
A--7-7-----5-7--|--------5-7--------|
E---------------|-------------------|

Riff 5:
  
E--------------------------------|
B--------------------------------|
G--------------------------------|
D--9-----9-----7-----7-----7--7--|
A--7-7-7-7-7-7-5-5-5-5-5-5-5--5--|
E--------------------------------|
   
E--------------------------------|
B--------------------------------|
G--------------------------------|
D--5-----5-----7-----7-----7--7--|
A--3-3-3-3-3-3-5-5-5-5-5-5-5--5--|
E--------------------------------|

Riff 6:
E----------------------------------|-----------------|
B----------------------------------|-----------------|
G--------7-7-7-------9-9-9-----11--|--------7-7-7----|
D--5-5-5-5-5-5-7-7-7-7-7-7-9-9-9---|--5-5-5-5-5-5-7--|
A--3-3-3-------5-5-5-------7-7-----|--3-3-3-------5--|
E----------------------------------|-----------------|

E----------------------------------|-----------------|
B----------------------------------|-----------------|
G--------7-7-7-------9-9-9-----11--|-----------------|
D--5-5-5-5-5-5-7-7-7-7-7-7-9-9-9---|--5-5-5-7-7-7-9--|
A--3-3-3-------5-5-5-------7-7-----|--3-3-3-5-5-5-7--|
E----------------------------------|-----------------|

Riff 7:
E-------------------------------------|------------------------------------|
B-------------------------------------|----------5-----5----------7--------|
G----9-11-12-11-9-----9-11-12-11-9-7--|--5---5-7---7-5----7---7-9---9-7-9--|
D--9----------------9-----------------|----5----------------7--------------|
A-------------------------------------|------------------------------------|
E-------------------------------------|------------------------------------|

Solo-riff 1:
E-------------------------------|------------------------------|
B-------------------------------|------------------------------|
G-------------------------------|------------------------------|
D--9-----------9----------------|--5-------------------7-------|
A--7-7-7-7-7-7-7--7-7-7-7-7-7---|--3--3-3-3-3-3-5------5--5-5--|
E-------------------------------|---------------3--3-3---------|

Solo-riff 2
E------------------------------|-----------------------------|
B------------------------------|-----------------------------|
G------------------------------|-----------------------------|
D------------------------------|-----------------------------|
A--7-----------7---------------|--3------------5-------------|
E--5-5-5-5-5-5-5--5-5-5-5-5-5--|--1--1-1-1-1-1-3--3-3-3-3-3--|

Fill before second time of Riff 1:
E--------------------------------|
B--------------------------------|
G--------------------------------|
D--9-----9-----9-----9-----9--9--|
A--7-7-7-7-7-7-7-7-7-7-7-7-7--7--|
E--------------------------------|

Songstructure:
Riff 1 (2 times)
Riff 2 (2 times)
Verse 1
Chorus (2 times)
Verse 2
Chorus (2 times)
Riff 3 (2 times)
Riff 4 (2 times)
Riff 5 (4 times)
Riff 4 (2 times)
Riff 5 (4 times)
Riff 6 (2 times)
Bass riff
Riff 7 (4 times)
Solo-riff 1 (4 times)
Solo-riff 2 (4 times)
Riff 7 (4 times)
Riff 6 (2 times)
Fill
Riff 1
Verse 3
Chorus
Riff 3
Riff 4 (2 times)
Riff 5 (8 times)
Riff 1
Riff 2 (2 times)
END
Comments