Iron Maiden - The Trooper Chords & Tabs

 

The Trooper Chords & Tabs

Iron Maiden Chords & Tabs

Version: 5 Type: Tab 0 ratings
1 star 2 stars 3 stars 4 stars 5 stars
comments

The Trooper Tab

The Trooper
Iron Maiden
Piece Of Mind

Riff 1
---------------------------------------------
---------------------------------------------
---------------------------------------------
-------------------------------------5-------
--7-7-7-5----5-5-5-3----3-3-3-1----5---5--7--
----------7----------5----------3------------

Riff 2
--------7-------------------------
--8-7-8---8-7-8-7-5-5-5---8----5--
------------------------7---7-----
----------------------------------
----------------------------------
----------------------------------

Verse 1
------------------------------------------
------------------------------------------
--7-7-7--9--7-7-7--9--7-7-7--5--7-7-7--9--
--7-7-7--9--7-7-7--9--7-7-7--5--7-7-7--9--
--5-5-5--7--5-5-5--7--5-5-5--3--5-5-5--7--
------------------------------------------

Verse 2
------------------------------------------------------------------
------------------------------------------------------------------
--7-7-7--9-99999--7-7-7--9-99999--7-7-7--5-55555--7-7-7--9-99999--
--7-7-7--9-99999--7-7-7--9-99999--7-7-7--5-55555--7-7-7--9-99999--
--5-5-5--7-77777--5-5-5--7-77777--5-5-5--3-33333--5-5-5--7-77777--
------------------------------------------------------------------

Chorus
-------------
-------------
--7-------9--
--7-------9--
--5-------7--
-------------

Riff 2
--------7-------------------------
--8-7-8---8-7-8-7-5-5-5---8----5--
------------------------7---7-----
----------------------------------
----------------------------------
----------------------------------

Verse 2
------------------------------------------------------------------
------------------------------------------------------------------
--7-7-7--9-99999--7-7-7--9-99999--7-7-7--5-55555--7-7-7--9-99999--
--7-7-7--9-99999--7-7-7--9-99999--7-7-7--5-55555--7-7-7--9-99999--
--5-5-5--7-77777--5-5-5--7-77777--5-5-5--3-33333--5-5-5--7-77777--
------------------------------------------------------------------

Chorus
-------------
-------------
--7-------9--
--7-------9--
--5-------7--
-------------

Solo 1
------------12--------12--------------------------
--15b(17)---15b(17)---15b(17)--r15--12---15~~~----
--------------------------------------------------
--------------------------------------------------
--------------------------------------------------
--------------------------------------------------

------15b(17)~-----15--12-----------------------------------
--12--------------------------------------------------------
---------------------------15--14--12-----------------------
---------------------------------------14b(16)-r14--12------
--------------------------------------------------------14--
------------------------------------------------------------

----------------------------------------------------------------
--------------12-h15-----------12-h15----------12-h15-----------
--14---b(16)----------14b(16)----------14b(16)---------14b(16)--
----------------------------------------------------------------
----------------------------------------------------------------
----------------------------------------------------------------


-----------------------------------------------------------------
--12-h15----------12-h15----------12-h15----------12-h15---------
----------14b(16)---------14b(16)---------14b(16)--------14b(16)-
-----------------------------------------------------------------
-----------------------------------------------------------------
-----------------------------------------------------------------

---------------------------------------------------------
--12-h15----------12-h15----------12-h15---------12-h15--
----------14b(16)---------14b(16)--------14b(16)---------
---------------------------------------------------------
---------------------------------------------------------
---------------------------------------------------------

-----------------------------------------15--19p15-h17p15------
-------------------------------------/17-------------------17--
--14----15--14--12--14--14--12~\-------------------------------
---------------------------------------------------------------
---------------------------------------------------------------
---------------------------------------------------------------

---15--19p15-h17p15-----15--19p15-h17p15----15--19p15-h17p15--
---------------------17------------------17-------------------
--------------------------------------------------------------
--------------------------------------------------------------
--------------------------------------------------------------
--------------------------------------------------------------

-----15--19p15-h17p15----15--19p15-h17p15------15--19p15-h17p15--
--17------------------17-------------------17--------------------
-----------------------------------------------------------------
-----------------------------------------------------------------
-----------------------------------------------------------------
-----------------------------------------------------------------

-------20b(22)--20b(22)--20b(22)--20b(22)r20--20b(22)r20--
---14-----------------------------------------------------
----------------------------------------------------------
----------------------------------------------------------
----------------------------------------------------------
----------------------------------------------------------
[ Tab from: http://www.guitartabs.cc/tabs/i/iron_maiden/the_trooper_tab_ver_5.html ]
--20b(22)r20--20b(22)-----19--20--17--19-----17----------------
------------------------------------------20-----19h20--17~~\--
---------------------------------------------------------------
---------------------------------------------------------------
---------------------------------------------------------------
---------------------------------------------------------------

----------12----------12-----------------------------------------
------12------15b(17)-----15--12---------------------------------
--/14-----------------------------14b(16)r14--12--14--12---------
-----------------------------------------------------------------
----------------------------------------------------------14~~---
-----------------------------------------------------------------

Solo 2

--------5h8p5h8p5h8p5h8p5----------------------------------
--5h8----------------------8p5h8p5h8p5h8p5-----------------
--------------------------------------------7b(9)-(9)r(8)--
-----------------------------------------------------------
-----------------------------------------------------------
-----------------------------------------------------------

----------------------------------------------------
-----------------------------------------------5h7--
--7--6--5-----6--5----------------------------------
-----------7--------7-------------------------------
-----------------------6--5-------------------------
-----------------------------8--5~~-----------------

--------------5h7p5h7p5h7----------------5h7p5h7p5/7--8p7h8p7--
--5h7p5h7p5-----------------5h7p5h7p6h8------------------------
---------------------------------------------------------------
---------------------------------------------------------------
---------------------------------------------------------------
---------------------------------------------------------------

----7---10b(12)--10b(12)--10b(12)--(12)r10--8--10~~--8\--
--10-----------------------------------------------------
---------------------------------------------------------
---------------------------------------------------------
---------------------------------------------------------
---------------------------------------------------------

-----12-----------12--15--12--15--12--12-----------12------
-/15-----15b(17)--------------------------15b(17)------15--
-----------------------------------------------------------
-----------------------------------------------------------
-----------------------------------------------------------
-----------------------------------------------------------

---------------------------------10h12p10------------------------
--13--12--13--12--12---------/10-----------10--13b(15)-HOLD BEND-
-----------------------------------------------------------------
-----------------------------------------------------------------
-----------------------------------------------------------------
-----------------------------------------------------------------

-----------------------------------------
--(15)\5/---NH---T-bar-------------------
------------12--\-(9)-/-----17b(19)~~~\--
-----------------------------------------
-----------------------------------------
-----------------------------------------

--------------------------------------------------20b(22)-(22)r20-
-----------------------------20b(22)--(22)r20--17-----------------
--/17--19b(21)--(21)r19--17---------------------------------------
------------------------------------------------------------------
------------------------------------------------------------------
------------------------------------------------------------------

--17-------------------20b(22)--20--19--17-----------------------
-----20b(22)-------17----------------------20b(22)---------------
---------------------------------------------------20b(23)-r(21)-
-----------------------------------------------------------------
-----------------------------------------------------------------
-----------------------------------------------------------------         
--------------------------
--17\15-------------------
---------17--17--14--14\--
--------------------------
--------------------------
--------------------------

Rhythm for solo 1
--------------------
--------------------
--9---7---4---5--7--
--9---7---4---5--7--   
--7---5---2---3--5--
--------------------

Rhythm for solo 2
--------------------
--------------------
----------9---------
--7---5---9---3--5--
--7---5---7---3--5--
--5---3-------1--3--

Riff 2
--------7-------------------------
--8-7-8---8-7-8-7-5-5-5---8----5--
------------------------7---7-----
----------------------------------
----------------------------------
----------------------------------

Verse 2
------------------------------------------------------------------
------------------------------------------------------------------
--7-7-7--9-99999--7-7-7--9-99999--7-7-7--5-55555--7-7-7--9-99999--
--7-7-7--9-99999--7-7-7--9-99999--7-7-7--5-55555--7-7-7--9-99999--
--5-5-5--7-77777--5-5-5--7-77777--5-5-5--3-33333--5-5-5--7-77777--
------------------------------------------------------------------

Chorus
-------------
-------------
--7-------9--
--7-------9--
--5-------7--
-------------

Riff 1
---------------------------------------------
---------------------------------------------
---------------------------------------------
-------------------------------------5-------
--7-7-7-5----5-5-5-3----3-3-3-1----5---5--7--
----------7----------5----------3------------
Comments