Iron Maiden - The Trooper Chords & Tabs

 

The Trooper Chords & Tabs

Iron Maiden Chords & Tabs

Version: 4 Type: Bass Tab 0 ratings
1 star 2 stars 3 stars 4 stars 5 stars
comments

The Trooper Bass Tab

   
Intro:

G|-------------------------------|
D|-------------------------------|x4
A|-------9-------7---------5--0--|
E|-9-9-9---7-7-7----5-5-5----0-0-|

Before Verse 1:

G|-------------------------------------------------|
D|-------------------------------------------------|
A|-9-9-9-9-9-9-9-9-9-9-0-0-9-9-9-9-9-9-9-9-9-9-0-0-|
E|----------------------0-----------------------0--|

G|-------------------------------------------------|
D|-------------------------------------------------|x2
A|-3-3-3-3-3-3-3-3-3-3-0-0-9-9-9-9-9-9-9-9-9-9-0-0-|
E|----------------------0-----------------------0--|

Verse 1:

G|------------------------------------|
D|------------------------------------|
A|-0-0------0-0-------0-0-------0-0---|
E|--0-9------0-9-------0-3-------0-9--|

G|-------------------------------------------------|
D|-------------------------------------------------|
A|-9-9-9-9-9-9-9-9-9-9-0-0-9-9-9-9-9-9-9-9-9-9-0-0-|
E|----------------------0-----------------------0--|

G|-------------------------------------------------|
D|-------------------------------------------------|
A|-3-3-3-3-3-3-3-3-3-3-0-0-9-9-9-9-9-9-9-9-9-9-0-0-|
E|----------------------0-----------------------0--|

Chorus:

G|-------------------------------------------------------------------|
D|-------------------------------------------------------------------|x2
A|-5-5-5-5-5-5-5-5-5-5-5-5-5-5-5-5---7-7-7-7-7-7-7-7-7-7-7-7-7-7-7---|
E|-------------------------------------------------------------------|

Before Verse 2:

G|-------------------------------------------------|
D|-------------------------------------------------|
A|-9-9-9-9-9-9-9-9-9-9-0-0-9-9-9-9-9-9-9-9-9-9-0-0-|
E|----------------------0-----------------------0--|

G|-------------------------------------------------|
D|-------------------------------------------------|x2
A|-3-3-3-3-3-3-3-3-3-3-0-0-9-9-9-9-9-9-9-9-9-9-0-0-|
E|----------------------0-----------------------0--|

Verse 2:

G|-------------------------------------------------|
D|-------------------------------------------------|
A|-9-9-9-9-9-9-9-9-9-9-0-0-9-9-9-9-9-9-9-9-9-9-0-0-|
E|----------------------0-----------------------0--|
[ Tab from: http://www.guitartabs.cc/tabs/i/iron_maiden/the_trooper_btab_ver_4.html ]
G|-------------------------------------------------|
D|-------------------------------------------------|x2
A|-3-3-3-3-3-3-3-3-3-3-0-0-9-9-9-9-9-9-9-9-9-9-0-0-|
E|----------------------0-----------------------0--|

Chorus:

G|-------------------------------------------------------------------|
D|-------------------------------------------------------------------|x2
A|-5-5-5-5-5-5-5-5-5-5-5-5-5-5-5-5---7-7-7-7-7-7-7-7-7-7-7-7-7-7-7---|
E|-------------------------------------------------------------------|

Solo: Not Sure How many Times You Have To Repeat It.

G|------------------------------------------------------------------|
D|------------------------------------------------------------------|
A|--7-7-7-7-7-7-7-7-7-7-7-7-7-7-7-7-3-3-3-3-3-3-3-3-3-3-3-3-3-3-3-3-|
E|------------------------------------------------------------------|

G|------------------------------------------------------------------|
D|------------------------------------------------------------------|
A|--5-5-5-5-5-5-5-5-5-5-5-5-5-5-5-5-7-7-7-7-7-7-7-7-7-7-7-7-7-7-7-7-|
E|------------------------------------------------------------------|

Before Verse 3:

G|-------------------------------------------------|
D|-------------------------------------------------|
A|-9-9-9-9-9-9-9-9-9-9-0-0-9-9-9-9-9-9-9-9-9-9-0-0-|
E|----------------------0-----------------------0--|

G|-------------------------------------------------|
D|-------------------------------------------------|x2
A|-3-3-3-3-3-3-3-3-3-3-0-0-9-9-9-9-9-9-9-9-9-9-0-0-|
E|----------------------0-----------------------0--|


Verse 3:

G|-------------------------------------------------|
D|-------------------------------------------------|
A|-9-9-9-9-9-9-9-9-9-9-0-0-9-9-9-9-9-9-9-9-9-9-0-0-|
E|----------------------0-----------------------0--|

G|-------------------------------------------------|
D|-------------------------------------------------|x2
A|-3-3-3-3-3-3-3-3-3-3-0-0-9-9-9-9-9-9-9-9-9-9-0-0-|
E|----------------------0-----------------------0--|

Chorus:

G|-------------------------------------------------------------------|
D|-------------------------------------------------------------------|x2
A|-5-5-5-5-5-5-5-5-5-5-5-5-5-5-5-5---7-7-7-7-7-7-7-7-7-7-7-7-7-7-7---|
E|-------------------------------------------------------------------|

Ending:

G|-------------------------------|
D|-------------------------------|x4
A|-------9-------7---------5--0--|
E|-9-9-9---7-7-7----5-5-5----0-0-|
Comments