Iron Maiden - The Number Of The Beast Chords & Tabs

 

The Number Of The Beast Chords & Tabs

Iron Maiden Chords & Tabs

Version: 1 Type: Tab 2 ratings
1 star 2 stars 3 stars 4 stars 5 stars
comments

The Number Of The Beast Tab

#----------------------------------PLEASE NOTE---------------------------------#
#This file is the author's own work and represents their interpretation of the #
#song. You may only use this file for private study, scholarship, or research. #
#------------------------------------------------------------------------------##

THE NUMBER OF THE BEAST - IRON MAIDEN
 
I like to play Number of the Beast like this.  It's a little difficult to get the gallop-like rhythm at first
but once you get it, it's much easier than any other version I've seen.  I'm too lazy to include the solos
too but you can just jam on them if you'd like.  At least that's what I think.
Have fun!
 
 
                                 
E----------------------------------------------------------------------------------|
B----------------------------------------------------------------------------------|
G----------------------------------------------------------------------------------|
D--------4---5---7-----7-----7-----7-----7-------4---5---7-----7-----7-----7-----7-|
A--5-5-5---5---5---5-5---5-5---5-5---5-5---5-5-5---5---5---5-5---5-5---5-5---5-5---|
E----------------------------------------------------------------------------------|
 

E----------------------------------------------------------------------------------|
B----------------------------------------------------------------------------------|
G----------------------------------------------------------------------------------|
D--------4---5---7-----7-----7-----7-----7-------2---3---5-----5-----5-----5-----5-|
A--5-5-5---5---5---5-5---5-5---5-5---5-5---5-3-3---3---3---3-3---3-3---3-3---3-3---|
E----------------------------------------------------------------------------------|
[ Tab from: http://www.guitartabs.cc/tabs/i/iron_maiden/the_number_of_the_beast_tab.html ]
E----------------------------------------------------------------------------------|
B----------------------------------------------------------------------------------|
G----------------------------------------------------------------------------------|
D--------2---3---0-----0-----0-----0-----0-------4---5---7-----7-----7-----7-----7-|
A--3-3-3---3---3---5-5---5-5---5-5---5-5---5-5-5---5---5---5-5---5-5---5-5---5-5---|
E----------------------------------------------------------------------------------|
 
    
E----------------------------------------------------------------------------------|
B----------------------------------------------------------------------------------|
G----------------------------------------------------------------------------------|
D--------4---5---7-----7-----7-----7-----7-------2---3---5-----5-----5-----5-----5-|
A--5-5-5---5---5---5-5---5-5---5-5---5-5---5-3-3---3---3---3-3---3-3---3-3---3-3---|
E----------------------------------------------------------------------------------|
 
   
E----------------------------------------------------------------------------------|
B----------------------------------------------------------------------------------|
G----------------------------------------------------------------------------------|
D--------2---3---0-----0-----0-----0-----0-------4---5---7-----7-----7-----7-----7-|
A--3-3-3---3---3---5-5---5-5---5-5---5-5---5-5-5---5---5---5-5---5-5---5-5---5-5---|
E----------------------------------------------------------------------------------|

 
    
E----------------------------------------------------------------------------------|
B----------------------------------------------------------------------------------|
G----------------------------------------------------------------------------------|
D--------4---5---7-----7-----7-----7-----7-------2---3---5-----5-----5-----5-----5-|
A--5-5-5---5---5---5-5---5-5---5-5---5-5---5-3-3---3---3---3-3---3-3---3-3---3-3---|
E----------------------------------------------------------------------------------|
 

    
E----------------------------------------------------------------------------------|
B----------------------------------------------------------------------------------|
G----------------------------------------------------------------------------------|
D--------2---3---0-----0-----0-----0-----0-------4---5---7-----7-----7-----7-----7-|
A--3-3-3---3---3---5-5---5-5---5-5---5-5---5-5-5---5---5---5-5---5-5---5-5---5-5---|
E----------------------------------------------------------------------------------|


All the rest of the song is pretty easy except for the little bridge right before the solos.  It goes like this:

E------------------------- --|---------------------------|
B----------------------------|---------------------------|
G----7---5-------------------|---3---1-------------------|
D--7---7---7-5---5-----------|-3---3---3-1---1-----------|
A--------------8---7-5-------|-------------4---3-1-------|
E----------------------8-----|---------------------4-----|


Just jam on the solos and try to figure them out yourself.  That's how you get better.  
Comments