Iron Maiden - The Number Of The Beast Chords & Tabs

 

The Number Of The Beast Chords & Tabs

Iron Maiden Chords & Tabs

Version: 1 Type: Chords 0 ratings
1 star 2 stars 3 stars 4 stars 5 stars
comments

The Number Of The Beast Chords

   
#----------------------------------PLEASE NOTE---------------------------------#
#This file is the author's own work and represents their interpretation of the #
#song. You may only use this file for private study, scholarship, or research. #
#------------------------------------------------------------------------------##
>From: C.W.G.M.Enders@kub.nl  (Constantijn Enders)
[ Tab from: http://www.guitartabs.cc/tabs/i/iron_maiden/the_number_of_the_beast_crd.html ]
THE NUMBER OF THE BEAST - IRON MAIDEN
 
[the intro is written in 5/4 measure (5 ticks in 1 measure)]
 
   D!
E--------------------|
B--------------------|
G--------------------|
D--------------------|
A--12-12-12-12-10-10-|
E--10-10-14-14-10-10-|
 
[intro]
 
                                        
E-------------------------------------------------------------------------|
B-------------------------------------------------------------------------|
G-------------------------------------------------------------------------|
D-------------------------------------------------------------------------|
A--12--x--x-12----x--x--x-12----x--x--x-12----x--x-12-12---12-12-10-10----|
E--10-10-10-10---10-10-10-10---10-10-10-10---10-10-10-10---14-14-10-10----|
 
 
E-------------------------------------------------------------------------|
B-------------------------------------------------------------------------|
G-------------------------------------------------------------------------|
D-------------------------------------------------------------------------|
A--12--x--x-12----x--x--x-12----x--x--x-12----x--x-12-12---12-12-10-10----|
E--10-10-10-10---10-10-10-10---10-10-10-10---10-10-10-10---14-14-10-10----|
 
 
E-------------------------------------------------------------------------|
B-------------------------------------------------------------------------|
G-------------------------------------------------------------------------|
D-------------------------------------------------------------------------|
A--12--x--x-12----x--x--x-12----x--x--x-12---10-10-10-10---10-10--8--8----|
E--10-10-10-10---10-10-10-10---10-10-10-10----8--8--8--8---12-12--8--8----|
 
E-------------------------------------------------------------------------|
B-------------------------------------------------------------------------|
G-------------------------------------------------------------------------|
D-------------------------------------------------------------------------|
A--10--x--x-10----x--x--x-10----x--x--x-10----x--x--x-10---10-10-----8----|
E---8--8--8--8----8--8--8--8----8--8--8--8----8--8--8--8----8-12-----8----|
 
    
E-------------------------------------------------------------------------|
B-------------------------------------------------------------------------|
G-------------------------------------------------------------------------|
D-------------------------------------------------------------------------|
A--12--x--x-12----x--x--x-12----x--x--x-12----x--x-12-12---12-12-10-10----|
E--10-10-10-10---10-10-10-10---10-10-10-10---10-10-10-10---14-14-10-10----|
 
  
E-------------------------------------------------------------------------|
B-------------------------------------------------------------------------|
G-------------------------------------------------------------------------|
D-------------------------------------------------------------------------|
A--12--x--x-12----x--x--x-12----x--x--x-12----x--x-12-12---12-12-10-10----|
E--10-10-10-10---10-10-10-10---10-10-10-10---10-10-10-10---14-14-10-10----|
 
   
E-------------------------------------------------------------------------|
B-------------------------------------------------------------------------|
G-------------------------------------------------------------------------|
D-------------------------------------------------------------------------|
A--12--x--x-12----x--x--x-12----x--x--x-12---10-10-10-10---10-10--8--8----|
E--10-10-10-10---10-10-10-10---10-10-10-10----8--8--8--8---12-12--8--8----|
 
  
E-------------------------------------------------------------------------|
B-------------------------------------------------------------------------|
G-------------------------------------------------------------------------|
D-------------------------------------------------------------------------|
A--10--x--x-10----x--x--x-10----x--x--x-10----x--x--x-10---10-10-----8----|
E---8--8--8--8----8--8--8--8----8--8--8--8----8--8--8--8----8-12-----8----|
 
      
E-------------------------------------------------------------------------|
B-------------------------------------------------------------------------|
G-------------------------------------------------------------------------|
D-------------------------------------------------------------------------|
A--12--x--x-12----x--x--x-12----x--x--x-12----x--x-12-12---12-12-10-10----|
E--10-10-10-10---10-10-10-10---10-10-10-10---10-10-10-10---14-14-10-10----|
 
[end intro]
 
[repeat intro]
E--(repeat three times---------------|---------------------------------)--|
B------------------------------------|------------------------------------|
G--2-2-2-4----2---4-4-4--5------4----|--5-5-5--7----5-------7--7--7--5----|
D--0-0-0-0----0---0-0-0--7------0----|--7-7-7--0----7-------0--0--0--7----|
A------------------------------------|------------------------------------|
E------------------------------------|------------------------------------|
 
[sorry no solo avaible]
 
Bb! / /  / F! / / /
Bb! / /  / F! / / /
Bb! / /  / F! / / /
Bb! / D! C!
 
                                C! Bb!                                G! F!
E------------------------------------|------------------------------------|
B------------------------------------|------------------------------------|
G------------------------------------|------------------------------------|
D----12----10------------------------|----8-----6-------------------------|
A-12----12----12-10-8-10-------------|-8-----8-----8--6-----6-------------|
E------------------------12-10-8-----|-------------------9-----8--6--4----|
 
F! /  /  / G! / A!  C! D!
D! / F!  / G! / Bb! C! D!
D! / F!  / G! / Bb! C! D!
D! / F!  / G! / Bb! C! D!
D! / F!  / G! / Bb! C! D!
 
[bass "solo"]
D! / F!  / G! / Bb! C! D!
D! / F!  / G! / Bb! C! D!
 
 
D! / / /  / D! / / / / /
D! / / C! / / / / / D! / C! D!
 
CHORDS
   D!   C!   G!   Bb!   F!   A!
E-------------------------------------------------------------------------|
B-------------------------------------------------------------------------|
G--7----5-----------------------------------------------------------------|
D--7----5----5-----8----3----7--------------------------------------------|
A--5----3----5-----8----3----7--------------------------------------------|
E------------3-----6----1----5--------------------------------------------|
 
Tab taken from the song book "Iron Maiden Recorded versions"
Originally published by Cherry Lane Music Co., Inc.
ISBN : 0-89524-190-0



Greetings,
   _____     _____
  |     |   |  _  |
  |  ---|   |  _|-|
  |_____|*  |_____|*

Build a system that even a fool can use and only a fool will use it.
Comments