Iron Maiden - The Fallen Angel Chords & Tabs

 

The Fallen Angel Chords & Tabs

Iron Maiden Chords & Tabs

Version: 1 Type: Bass Tab 0 ratings
1 star 2 stars 3 stars 4 stars 5 stars
comments

The Fallen Angel Bass Tab

Iron Maiden
The Fallen Angel
Tabbed by Dan (argybahji@hotmail.com)


[Intro Part 1]
G|-------------0-----------5-5-5-4-4-4-2-5-4-2-0------------------
D|-0-2-2-2-2-2---2-2-2-2-2-----------------------0----------------
A|----------------------------------------------------------------
E|----------------------------------------------------------------

G|-------------0-----------7-7-7-5-5-5-4-7-5-4-2-0----------------
D|-0-2-2-2-2-2---2-2-2-2-2----------------------------------------
A|----------------------------------------------------------------
E|----------------------------------------------------------------

G|-------------0-----------5-5-5-4-4-4-2-5-4-2-0------------------
D|-0-2-2-2-2-2---2-2-2-2-2-----------------------4----------------
A|----------------------------------------------------------------
E|----------------------------------------------------------------

G|----------------------------------------------------------------
D|----------------------------------------------------------------
A|-2-2-2-2-2-2-2-2-2-2-2-2-5-5-5-5-5-5-5-5-5-5-5-5----------------
E|----------------------------------------------------------------

[Intro Part 2]
G|----------------------------------------------------------------
D|----------------------------------------------------------------
A|-0-0-0-0-2-3-0-0-0-0-2-3-5---5-5---0-0-0-0-2-3-0-0-0-0-2-3-5---5
E|---------------------------3---------------------------------3--

[Verse] ('Azazel is beside you...')
G|----------------------------------------------------------------
D|----------------------------------------------------------------
A|-------------------------3-------------------------------5------
E|-0-0-0-0-0-0-0-0-0-0-0-0---0-2-3-0-0-0-0-0-0-0-0-0-0-0-0---0-2-3

[Pre-Chorus] ('You and only god would know...')
G|----------------------------------------------------------------
D|----------------------------------------------------------------
A|-2-2-3-3-5-5-7-7-2-2-2-2---2-2-3-3-5-5-7-7-2-2-2-2-2-2----------
E|----------------------------------------------------------------

G|----------------------------------------------------------------
D|----------------------------------------------------------------
A|-2-2-3-3-5-5-7-7-2-2-2-2---2-2-3-3-5-5-7-7-2-2-2-2-2-2-3-5------
E|----------------------------------------------------------------
[ Tab from: http://www.guitartabs.cc/tabs/i/iron_maiden/the_fallen_angel_btab.html ]
[Chorus] ('Could it be...')
G|----------------------------------------------------------------
D|----------------------5-7----------------------5-7--------------
A|-7-7777-3-3333-5-5555-----7-7777-3-3333-5-5555------------------
E|----------------------------------------------------------------

G|----------------------------------------------------------------
D|----------------------------------------------------------------
A|-7-7777-3-3333-5-5555-----22222222-22222222-55555555-55555555---
E|----------------------3-5---------------------------------------

[Guitar Solo]
G|----------------------------------------------------------------
D|----------------------------------------------------------------
A|-4-4-4-4-4-4-4-4-2-2-2-2---------4-4-4-4-4-4-4-4-2-2-2-2--------
E|-------------------------0-0-2-2-------------------------0-0-2-2

G|----------------------------------------------------------------
D|----------------------------------------------------------------
A|-4-4-4-4-4-4-4-4-2-2-2-2---------4-4-4-4-4-4-4-4-2-2-2-2--------
E|-------------------------0-0-2-2-------------------------0-0-2-2

G|----------------------------------------------------------------
D|----------------------------------------------------------------
A|-------------------------2-2-2-2-------------------------2-2-2-2
E|-4-4-4-4-4-4-4-4-2-2-2-2---------4-4-4-4-4-4-4-4-2-2-2-2--------

G|----------------------------------------------------------------
D|----------------------------------------------------------------
A|-------------------------2-2-2-2-------------------------2-2-2-2
E|-4-4-4-4-4-4-4-4-2-2-2-2---------4-4-4-4-4-4-4-4-2-2-2-2--------

G|----------------------------------------------------------------
D|----------------------------------------------------------------
A|-2-2-2-2-2-2-3-5-----------------2-2-2-2-2-2-3-2-0-------------
E|----------------------------------------------------------------

G|----------------------------------------------------------------
D|----------------------------------------------------------------
A|-2-2-2-2-2-2-3-5-----------------2-2-2-2-2-2-3-2-0-2------------
E|----------------------------------------------------------------


Structure:
==================
Intro Part 1	x1
Intro Part 2	x2
Verse		x4
Pre-Chorus	x1
Chorus		x2
Intro Part 2	x1
Verse		x4
Pre-Chorus	x1
Chorus		x2
Guitar Solo	x1
Chorus		x2

End on a lot of E's
Comments