Iron Maiden - The Evil That Men Do Chords & Tabs

 

The Evil That Men Do Chords & Tabs

Iron Maiden Chords & Tabs

Version: 1 Type: Bass Tab 0 ratings
1 star 2 stars 3 stars 4 stars 5 stars
comments

The Evil That Men Do Bass Tab

Iron Maiden
The Evil That Men Do
Tabbed By Dan (argybahji@hotmail.com)

NOTE:  I tabbed this from the live version of the song on Rock In 
       Rio so the structure may be different to the studio version

    >  denotes that the note is played many times, use your own 
       judgement when playing these bits. 


[Intro]
G|----------------------------------
D|----------------------------------
A|-7---5---3---5---3---3-5-7---5---3
E|----------------------------------


[Verse Part 1]		
G|----------------------------------------------------------------
D|----------------------------------------------------------------
A|-7-777-777-777-777-777-777-777-777-333-333-333-333-3------------
E|-----------------------------------------------------5-3-5-3-5--   	


[Verse Part 2]	(But I will pray for her...)
G|----------------------------------------------------------------
D|----------------------------------------------------------------
A|-777-777-777-777-333-333-333-333-----------------555-555-555-555
E|---------------------------------333-333-333-333----------------
[ Tab from: http://www.guitartabs.cc/tabs/i/iron_maiden/the_evil_that_men_do_btab.html ]
G|----------------------------------------------------------------
D|----------------------------------------------------------------
A|-777-777-777-777-333-333-333-333-----------------555-555-555-555
E|---------------------------------333-333-333-333----------------

G|-----------------5-4-2-0-----2--
D|-------------------------4-5----
A|-777-777-777-777---------------3	
E|--------------------------------					


[Pre Chorus] 	(Living on a razors edge...)
G|-------------------------------
D|-------------------------------
A|-3>-----7>-----5>-----3>-----5>
E|-------------------------------


[Chorus]	(The evil that men do...)
G|----------------------------------------------------------------	
D|----------------------------------------------------------------
A|-7>--------------3>------5>------7>--------------3>-------------
E|---------------------------------------------------------5>-----	
       

[Fill/End]
G|-------------
D|-------------
A|-7-------7-7-
E|-------------
                 
                         
[Guitar Solo]
For solo just play chorus 2 frets higher
G|----------------------------------------------------------------	
D|----------------------------------------------------------------
A|-9>--------------5>------7>------9>--------------5>------2>-----
E|----------------------------------------------------------------	
       

Structure:
==================
Intro		x1
Verse 1		x4
Verse 2		x1
Pre Chorus	x2
Chorus		x2
Verse 1		x2
Verse 2		x1
Pre Chorus	x1
Chorus		x2
Fill/End	x1
Chorus		x1
Guitar Solo	x2
Pre Chorus	x1
Chorus		x4
Fill/End	x1
Comments