Iron Maiden - The Clansman Chords & Tabs

 

The Clansman Chords & Tabs

Iron Maiden Chords & Tabs

Version: 3 Type: Tab 0 ratings
1 star 2 stars 3 stars 4 stars 5 stars
comments

The Clansman Tab

The Clansman Intro
Iron Maiden
Tabbed by JC (wigga123@hotmail.com)

I just want to say Iron Maiden rocks, and that this tab is one-hundred, and i
mean, 100% correct. No flaws. I spent three days figuring out the tabs, and i can
safely say i have the intro to The Clansman perfect. The reason why i only did
the intro is because i was too tired to do the whole song, so if you do figure it
out, you have my email.

|-------------------------------|-----------------------------------|
|-------------------------------|-------------------------8---------|  Repeat 
|----97h9-7h97/5-5h7-7p5------|----9-7h9-7h9-7/5-7-7\9-----9-7\9--|    x4
|-7-------------------------7-5-|-7-------------------------------7-|
|-------------------------------|-----------------------------------|
|-------------------------------|-----------------------------------|

|-5ring-----5--7-8-7--5--3-|
|--------5------------------|
|---------------------------|  Repeat x2
|---------------------------|
|---------------------------|
|---------------------------|

|-5ring------5--7-8-7--5--3-10ring--8--7--3---|
|---------5------------------------------------|
|----------------------------------------------|    
|----------------------------------------------|
|----------------------------------------------|
|----------------------------------------------|

|-5ring-----5--7-8-7--5--3-|
|--------5------------------|
|---------------------------|    Repeat x2
|---------------------------|
|---------------------------|
|---------------------------|

|---------------------|
|---------------------|
|----7-9-----9-----9--|   Repeat x4
|-7-------7-----7-----|
|---------------------|
|---------------------|
[ Tab from: http://www.guitartabs.cc/tabs/i/iron_maiden/the_clansman_tab_ver_3.html ]
|-----------------------------------------------------------|
|-----------------------------------------------------------|
|----7-----9-9------7-----9-9-----7-----9-------10-------9--|  Repeat x2
|-7-----7--------7-----7-------7-----7-----7-7------7-7-----|
|-----------------------------------------------------------|
|-----------------------------------------------------------|


|------------------------------------|---------------------------|
|------------------------------------|---------------------------|
|------------------------------------|---------------------------|
|-----10------12-12------10------12--|----5-----7-7-----5-----7--|
|-10------10---------10------10------|-5-----5-------5-----5-----|
|------------------------------------|---------------------------|





|-----------------------------------------------------------|
|-----------------------------------------------------------|
|----7-----9-9------7-----9-9-----7-----9-------10-------9--| 
|-7-----7--------7-----7-------7-----7-----7-7------7-7-----|
|-----------------------------------------------------------|
|-----------------------------------------------------------|

|------------------------------------|---------------------------|
|------------------------------------|---------------------------|
|------------------------------------|---------------------------|  Repeat x3
|-----10------12-12------10------12--|----5-----7-7-----5-----7--|
|-10------10---------10------10------|-5-----5-------5-----5-----|
|------------------------------------|---------------------------|

(Play this during the above riff)
     Repeat x3          Repeat x1
|--10ring--8--7--5--|--3--7--3--5------|
|-------------------|------------------|
|-------------------|------------------|
|-------------------|------------------|
|-------------------|------------------|
|-------------------|------------------|


|---------------------------------------------------------|
|---------------------------------------------------------|
|----7-----9-9-----9-----9-9-----9-----9-9-----9-----9-9--|
|-7-----7-------7-----7-------7-----7-------7-----7-------|
|---------------------------------------------------------|
|---------------------------------------------------------|
(This is played throughout the first verse too)
Comments