Iron Maiden - Strange World Chords & Tabs

 

Strange World Chords & Tabs

Iron Maiden Chords & Tabs

Version: 1 Type: Tab 0 ratings
1 star 2 stars 3 stars 4 stars 5 stars
comments

Strange World Tab

   
                     ****  Strange World *****
                               from
                        Lp: Iron Maiden`80
                           (Steve Harris)

  Tabbed by Cryptus
 
 Used chords:Em,G,D,C
  
  h       - hammer on
  p       - pull off
  /       - slide
  ~       - vibrato
 15b(17)  - bend to note in ( )
 15br(17) - bend & release
 P.H.     - pick harmonics
   
 Solo 1(Dave)                                    
E:----------------14--15--17--15h17p15--14h15p14--------------------------|
B:-17-15-17~---17--------------------------------15--17--17br(18)17p15-17~|
G:------------------------------------------------------------------------|
D:------------------------------------------------------------------------|
A:------------------------------------------------------------------------|
E:------------------------------------------------------------------------|

E:------------------------------------------------------------------------|
B:------------------------------------------------19h20---19-15-17~-------|
G:----------16-----------------17-19----17-19-21~-------------------------|
D:----17-19----19br(21)19~--21-------21-----------------------------------|
A:-19---------------------------------------------------------------------|
E:------------------------------------------------------------------------|
[ Tab from: http://www.guitartabs.cc/tabs/i/iron_maiden/strange_world_tab.html ]
E:---------------------------------------------------------------P.H.-----|
B:---------------------------------------------------------sl-------------|
G:----9--11-12--11h12p11----11-12-14--12h14p12--11h12p11--9/7--9b-9b-9b---|
D:-12--------------------14-----------------------------------------------|
A:------------------------------------------------------------------------|
E:------------------------------------------------------------------------|
                                              
E:-----------|-------------------------------15p17--14p15--12p14--10h12p10|
B:-----------|--17-19-20--17-19-20--17-19-20------------------------------|
G:-9brp7-9~--|------------------------------------------------------------|
D:-----------|------------------------------------------------------------|
A:-----------|------------------------------------------------------------|
E:-----------|------------------------------------------------------------|
       
E:----------10-12~~-----------||
B:--12-13---------------------||
G:----------------------------||
D:----------------------------||
A:----------------------------||
E:----------------------------||


 Solo 2(Dave)  
E:-----------------------------------------------------------------------|
B:----8--10b(12)---12--15br(17)15~---17--20b(22)--20b(22)--20b(22)-------|
G:--9--------------------------------------------------------------------|
D:-----------------------------------------------------------------------|
A:-----------------------------------------------------------------------|
E:-----------------------------------------------------------------------|
                                                                      
E:---------------------------|--------------------------15--17br(18)17p15|
B:--20b(22)--20-19-15-17-17~-|--12--15--17br(19)17~--19------------------|
G:---------------------------|-------------------------------------------|
D:---------------------------|-------------------------------------------|
A:---------------------------|-------------------------------------------|
E:---------------------------|-------------------------------------------|

E:-----------------------------------------------------------------------|
B:--17--15---------------------------------------------------------------|
G:-----------------------------------------------------------------------|
D:-----------------------------------------------------------------------|
A:-----------------------------------------------------------------------|
E:-----------------------------------------------------------------------|

E:-----------------------------------------------------------------------|
B:-----------------------------------------------------------------------|
G:-----------------------------------------------------------------------|
D:-----------------------------------------------------------------------|
A:-----------------------------------------------------------------------|
E:-----------------------------------------------------------------------|

E:-----------------------------------------------------------------------|
B:-----------------------------------------------------------------------|
G:-----------------------------------------------------------------------|
D:-----------------------------------------------------------------------|
A:-----------------------------------------------------------------------|
E:-----------------------------------------------------------------------|

transcribed by jano "cryptus" STUBNA
spuza@netlab.sk
slovakia
Comments