Iron Maiden - Sign Of The Cross Chords & Tabs

 

Sign Of The Cross Chords & Tabs

Iron Maiden Chords & Tabs

Version: 3 Type: Tab 0 ratings
1 star 2 stars 3 stars 4 stars 5 stars
comments

Sign Of The Cross Tab

The Sign Of The Cross
Iron Maiden
Rock In Rio

This is the live version of sign of the cross in rock in rio and its a really good song. 
only been playing guitar for a year and a half so this might not be that accurate so if 
notice any mistakes please correct them..... 1 more thing UP THE IRONS!!!!!!
Intro
------------------------------------|
------------------------------------|
------------------------------------|
------------------------------------|
--0-2-3-2-0-2-3-2--0-2-3-2-3-5-3-2--|
------------------------------------|

----------------------------------|
----------------------------------|
----------------------------------|
----------------------------------|
--0-2-3-2-0-2-3-2-----------------|
-------------------0-2-3-2-3-2-3--|

------------------------------------|
------------------------------------|
------------------------------------|
------------------------------------|
--0-2-3-2-0-2-3-2--0-2-3-2-3-5-3-2--|
------------------------------------|

----------------------------------|
----------------------------------|
----------------------------------|
----------------------------------|
--0-2-3-2-0-2-3-2-----------------|
-------------------0-2-3-2-3-2-0--|

I didn't tab the next bit coz i couldn't be bothered but its not hard to work out if you 
to play it that badly.

Verse
----------------------------|
----------------------------|
--9-------------------------|
--9-strum-this-for-a-while--|
--7-------------------------|
----------------------------|

--------------|
--------------|
--4--5--7--9--|
--4--5--7--9--|
--2--3--5--7--|
--------------|

----------------------------|
----------------------------|
--9-------------------------|
--9-strum-this-for-a-while--|
--7-------------------------|
----------------------------|

--------------|
--------------|
--4--5--7--9--|
--4--5--7--9--|
--2--3--5--7--|
--------------|

----------------------------|
----------------------------|
--9-------------------------|
--9-strum-this-for-a-while--|
--7-------------------------|
----------------------------|

------------------------------------|
--5--7-8-7-8-7-5-3--5--7-8-7-8-7-5--|
------------------------------------|
------------------------------------|
------------------------------------|
------------------------------------|

----------------------------|
----------------------------|
--5-------------------------|
--5-strum-this-for-a-while--|
--3-------------------------|
----------------------------|

------------------------------------|
--5--7-8-7-8-7-5-3--5--7-8-7-8-7-5--|
------------------------------------|
------------------------------------|
------------------------------------|
------------------------------------|

Chorus
-----------------|
-----------------|
--5-------7------|
--5---5---7---7--|
--3---5---5---7--|
------3-------5--|

Verse 2
----------------------------|
----------------------------|
--9-------------------------|
--9-strum-this-for-a-while--|
--7-------------------------|
----------------------------|

------------------------------------|
--5--7-8-7-8-7-5-3--5--7-8-7-8-7-5--|
------------------------------------|
------------------------------------|
------------------------------------|
------------------------------------|

----------------------------|
----------------------------|
--5-------------------------|
--5-strum-this-for-a-while--|
--3-------------------------|
----------------------------|

------------------------------------|
--5--7-8-7-8-7-5-3--5--7-8-7-8-7-5--|
------------------------------------|
------------------------------------|
------------------------------------|
------------------------------------|

Chorus
-----------------|
-----------------|
--5-------7------|
--5---5---7---7--|
--3---5---5---7--|
------3-------5--|

Didn't get the next bit

Breakdown thing before the solos
---------------------------------------------|
---------------------------------------------|
--9---9-7-5---5-7-9---9-7-5---5-4-2---2-4-5--|
--9---9-7-5---5-7-9---9-7-5---5-4-2---2-4-5--|
--7---7-5-3---3-5-7---7-5-3---3-2-0---0-2-3--|
---------------------------------------------|

---------------------------------------------------------|
---------------------------------------------------------|
---------------------------------------------------------|
----9---9-7-----9---9---9-7-----9---9-7-----9---9---9-7--|
--7---7---7---7---7---7---7---7---7---7---7---7---7---7--|
---------------------------------------------------------|

---------------------------------------------------------|
---------------------------------------------------------|
---------------------------------------------------------|
----7---7-5-----7---7---7-5-----9---9-7-----9---9---9-7--|
--5---5---5---5---5---5---5---7---7---7---7---7---7---7--|
---------------------------------------------------------|

The next bit is the same as above except the timings different
[ Tab from: http://www.guitartabs.cc/tabs/i/iron_maiden/sign_of_the_cross_tab_ver_3.html ]
-------------------------------------------------------------------|
-------------------------------------------------------------------|
-------------------------------------------------------------------|
----9-------7-------9-------7-------9-------7-------9-------7------|
--7---7-7-7---7-7-7---7-7-7---7-7-7---7-7-7---7-7-7---7-7-7---7-7--|
-------------------------------------------------------------------|

-------------------------------------------------------------------|
-------------------------------------------------------------------|
-------------------------------------------------------------------|
----7-------5-------7-------5-------7-------5-------7-------5------|
--5---5-5-5---5-5-5---5-5-5---5-5-5---5-5-5---5-5-5---5-5-5---5-5--|
-------------------------------------------------------------------|

----------------------------------------------------------------------|
--12-----12-13--15-13-----------12--12-----12-13--15-13-----------12--|
------14--------------14--12-14---------14--------------14--12-14-----|
----------------------------------------------------------------------|
----------------------------------------------------------------------|
----------------------------------------------------------------------|

----------------------------------------------------------------------|
----------------13--------------------------------13------------------|
--14--12-14-15-----15-12-----12-14--14--12-14-15-----15-12-----12-14--|
--------------------------15--------------------------------15--------|
----------------------------------------------------------------------|
----------------------------------------------------------------------|

-------------------------------------------|
-------------------------------------------|
-------------------------------------------|
-------------------------------------------|
--7--10-10-9-7--10-10-9-7--10-10-9---------|
-----------------------------------8-8-10--|

-------------------------------------------------|
-----12-10----------12-10------------8---8-------|
--9--------12-11-9--------12-11-9--7---7---7--9--|
-------------------------------------------------|
-------------------------------------------------|
-------------------------------------------------|

Next comes Dave And Janicks solos, I have an idea of how they're played but its not 
tabbing

-------------------------------------------------|
-----12-10----------12-10------------8---8-------|
--9--------12-11-9--------12-11-9--7---7---7--9--|
-------------------------------------------------|
-------------------------------------------------|
-------------------------------------------------|

----------------------------------|
-----------12-12--12-13-12----12--|
-----12-14-----------------14-----|
--14------------------------------|
----------------------------------|
----------------------------------|

-------------------------------------------|
-----------12-12--12-13-12----15-13-12-----|
-----12-14-----------------14----------14--|
--14---------------------------------------|
-------------------------------------------|
-------------------------------------------|

----------------------------------|
-----------12-12--12-13-12----12--|
-----12-14-----------------14-----|
--14------------------------------|
----------------------------------|
----------------------------------|

-------------------------------------------|
--15-13-12----12---------------------------|
-----------14----14--12-11-12-11-----------|
---------------------------------14-12-14--|
-------------------------------------------|
-------------------------------------------|

Chorus
-----------------|
-----------------|
--5-------7------|
--5---5---7---7--|
--3---5---5---7--|
------3-------5--|

----------------------------------------------------------------------|
----------6-5-------------------------------8-7-----------------------|
------5-------5------------5-4----------7-------7------------7-6------|
----5---5-------5------5-------5------7---7-------7------7-------7----|
--3------------------5---5-------5--5------------------7---7-------7--|
-------------------3---------------------------------5----------------|

---------------------------------------|
----------6-5--------------------------|
------5-------5------------5-4------9--|
----5---5-------5------5-------5----9--|
--3------------------5---5-------5--7--|
-------------------3-------------------|

Outro
------------------------------------|
------------------------------------|
------------------------------------|
------------------------------------|
--0-2-3-2-0-2-3-2--0-2-3-2-3-5-3-2--|
------------------------------------|

----------------------------------|
----------------------------------|
----------------------------------|
----------------------------------|
--0-2-3-2-0-2-3-2-----------------|
-------------------0-2-3-2-3-2-3--|

------------------------------------|
------------------------------------|
------------------------------------|
------------------------------------|
--0-2-3-2-0-2-3-2--0-2-3-2-3-5-3-2--|
------------------------------------|

----------------------------------|
----------------------------------|
----------------------------------|
----------------------------------|
--0-2-3-2-0-2-3-2-----------------|
-------------------0-2-3-2-3-2-0--|
Comments