Iron Maiden - Sanctuary Chords & Tabs

 

Sanctuary Chords & Tabs

Iron Maiden Chords & Tabs

Version: 2 Type: Tab 0 ratings
1 star 2 stars 3 stars 4 stars 5 stars
comments

Sanctuary Tab

iron maiden
title:sanctuary
album:iron maiden
E-mail:sveinungborvik@hotmail.com


Gtr. I                    Gtr. II                Gtrs. 1 & 2
Rhy. Fig. 1               w/Rhy. Fig. 1
   **        Play 4 times           Play 12 times
E ||-------------------||---------------------||------------------------|
B ||-------------------||---------------------||------------------------|
G ||*-----------------*||*--5-5--3--5--------*||------------------------|
D ||*--5-5--3--5------*||*--5-5--3--5--------*||--8-x-10-\--10-x-12---\-|
A ||---5-5--3--5--3p0--||---5-5--3--5--3p0----||--8-x-8--\--10-x-10---\-|
E ||-------------------||---------------------||------------------------|


E |--------------------|----------------------|--------------------------|
B |--------------------|----------------------|--------------------------|
G |--------------------|----------------------|--------------------------|
D |--5-5--3--5---------|--5-5--3--5-----------|--8-x-10---10-x-12---\----|
A |--5-5--3--5----3p0--|--5-5--3--5----3p0----|--8-x-8----10-x-10---\----|
E |--------------------|----------------------|--------------------------|

   Let Ring
E |--------------------|-------------------------------------------------|
B |--------------------|-------------------------------------------------|
G |-2------------------|---------Replay from this point **---------------|
D |-2------------------|-------------------------------------------------|
A |-0------------------|-------------------------------------------------|
E |--------------------|-------------------------------------------------|

  Rhy. Fig. 2
E ||-------------------|----------------------|--------------------------|
B ||-------------------|----------------------|--------------------------|
G ||*------------------|----------------------|--------------------------|
D ||*---7---7------7---|----5---5------5------|----7---7--------7--------|
A ||-------------------|----------------------|--------------------------|
E ||----5---5------5---|----3---3------3------|----5---5--------5--------|

             Play twice  Gtr. I
E |-------------------||----------------------|-------------------------|
B |-------------------||----------------------|-------------------------|
G |------------------*||----------------------|-------------------------|
D |--7---7--------7--*||--9-7-9---7-7-7--9--7-|--7-5-7---5-5-5--7--5----|
A |--5---5--------5---||--7-5-7---5-5-5--7--5-|--5-3-5---3-3-3--5--3----|
E |-------------------||----------------------|-------------------------|


E |-------------------|
B |-------------------|
G |-2-----------------|
D |-2-----------------|
A |-0-----------------|
E |-------------------|

  Guitar Solo  w/ Rhy. Fig. 1
  Gtr. II
E |--5h8p5h8p5h8p5h8p5h8p5h8p5h8p5h8p5-5------5-8p5------5-8p5------
B |--------------------------------------7b(9)------7b(9)------7b(9)
G |-----------------------------------------------------------------
D |-----------------------------------------------------------------
A |-----------------------------------------------------------------
E |-----------------------------------------------------------------


E |-5-8p5------5-8p5------5-8p5------5-8p5------5-8p5-------5-8p5---
B |-------7b(9)------7b(9)------7b(9)------7b(9)-------7b(9)--------
G |-----------------------------------------------------------------
D |-----------------------------------------------------------------
A |-----------------------------------------------------------------
E |-----------------------------------------------------------------
[ Tab from: http://www.guitartabs.cc/tabs/i/iron_maiden/sanctuary_tab_ver_2.html ]
         ~~~~                                          ~~~~~
E |-------------------------13----13-15b(17)rb(17)rb(18)----15-15-13
B |-7b(9)-------------13-15----15-----------------------------------
G |-------------12-14-----------------------------------------------
D |-----------------------------------------------------------------
A |-----------------------------------------------------------------
E |-----------------------------------------------------------------

                              ~~~  
E |----13--------------------------------------18-------18-------18-
B |-15----15-13----13-------------------18b(20)--18b(20)--18b(20)---
G |-------------14----14-12-12------\-------------------------------
D |-----------------------------------------------------------------
A |-----------------------------------------------------------------
E |-----------------------------------------------------------------

                                                                ~~~~
E |---------18---------18---------18---------18---------18----------
B |-18b(20)----18b(20)----18b(20)----18b(20)----18b(20)----18b(20)--
G |-----------------------------------------------------------------
D |-----------------------------------------------------------------
A |-----------------------------------------------------------------
E |-----------------------------------------------------------------


E |-------------------------14h17p14h17-17h20p17h20-20b(22)-20------
B |-------------14h17p14h17-----------------------------------------
G |-14h17p14h17-----------------------------------------------------
D |-----------------------------------------------------------------
A |-----------------------------------------------------------------
E |-----------------------------------------------------------------

                           ~~~~~          ~~~~~
E |-20b(22)-20b(22)-20b(22)------\----------------------------------
B |---------------------------------15b(17)----r--b(17)-----/-14----
G |-----------------------------------------------------------------
D |-----------------------------------------------------------------
A |-----------------------------------------------------------------
E |-----------------------------------------------------------------

                                                     ~~~
E |-----------------------------------------------------------------
B |-12h15p12h15p12----12h15p12h15p12-------15-17b(19)----17b(19)--r-
G |----------------14-----------------/16---------------------------
D |-----------------------------------------------------------------
A |-----------------------------------------------------------------
E |-----------------------------------------------------------------


E |-----------------------------------------20----------------------
B |-17p15-17p15------------------/--20b(22)----20b(22)-r--17-20-17--
G |-------------16-17b(19)-hold-------------------------------------
D |-----------------------------------------------------------------
A |-----------------------------------------------------------------
E |-----------------------------------------------------------------


E |-------------------------------------------------------------20--
B |-20-20b(22)rp17---20-20b(22)rp17---20-20b(22)rp17--20-20b(22)----
G |-----------------------------------------------------------------
D |-----------------------------------------------------------------
A |-----------------------------------------------------------------
E |-----------------------------------------------------------------

           ~~~                ~~~~                    End of Solo
E |-----------------------------------------------------------------
B |-20b(22)---20b(22)--r--(20)--------------------------------------
G |-----------------------------------------------------------------
D |-----------------------------------------------------------------
A |-----------------------------------------------------------------
E |-----------------------------------------------------------------
Comments