Iron Maiden - Running Free Chords & Tabs

 

Running Free Chords & Tabs

Iron Maiden Chords & Tabs

Version: 3 Type: Tab 0 ratings
1 star 2 stars 3 stars 4 stars 5 stars
comments

Running Free Tab

   
Band- Iron Maiden
Song- Running Free

Gtr I (E A D G B E) - 'Dennis Stratton - dist electric'
Gtr II (E A D G B E) - 'Dave Murray - dist electric'

Intro
  Q=175(8=s8)
 4/4
  Gtr I
  Wx12          W          +Q.    Q.    Q     H.      E E
|-------------|----------|------------------|--------------|
|-------------|----------|------------------|--------------|
|-------------|-9--------|-(9)---12----11---|-9-------9-x--|
|-------------|-9--------|-(9)---12----11---|-9-------9-x--|
|-------------|-7--------|-(7)---10-----9---|-7-------7-x--|
|-------------|----------|------------------|--------------|
|
| Gtr II
| Wx12          W          +Q.    Q.    E E   H.      E E
|-------------|----------|------------------|--------------|
|-------------|----------|------------------|--------------|
|-------------|-9--------|-(9)---12----11-9-|-9-------9-x--|
|-------------|-9--------|-(9)---12----11-9-|-9-------9-x--|
|-------------|-7--------|-(7)---10-----9-7-|-7-------7-x--|
|-------------|----------|------------------|--------------|


      |--3--|     |--3--|
  Q   E E   E Q   E E   E   W          +Q.    Q.    Q
|-------------------------|----------|------------------|
|-------------------------|----------|------------------|
|-5---x-x---x-7---x-x---x-|-9--------|-(9)---12----11---|
|-5---x-x---x-7---x-x---x-|-9--------|-(9)---12----11---|
|-3---x-x---x-5---x-x---x-|-7--------|-(7)---10-----9---|
|-------------------------|----------|------------------|
|
| Q.      E   Q.      E     W          +Q.    Q.    E E
|-------------------------|----------|------------------|
|-------------------------|----------|------------------|
|-5-------x---7-------x---|-9--------|-(9)---12----11-9-|
|-5-------x---7-------x---|-9--------|-(9)---12----11-9-|
|-3-------x---5-------x---|-7--------|-(7)---10-----9-7-|
|-------------------------|----------|------------------|


                      |--3--|     |--3--|
  H.      +E  E   Q   E E   E Q   E E   E
|---------------|---------------------------|
|---------------|---------------------------|
|-9-------(9)-x-|-5---x-x---x-7---x-x---x---|
|-9-------(9)-x-|-5---x-x---x-7---x-x---x---|
|-7-------(7)-x-|-3---x-x---x-5---x-x---x---|
|---------------|---------------------------|
|
| H.      +E  E   Q.      E   Q.      E
|---------------|---------------------------|
|---------------|---------------------------|
|-9-------(9)-x-|-5-------x---7-------x-----|
|-9-------(9)-x-|-5-------x---7-------x-----|
|-7-------(7)-x-|-3-------x---5-------x-----|
|---------------|---------------------------|


   Verse
    Gtrs I, II
       |-3-|    |-3-|      |-3-|    |-3-|
    Q  E E E Q  E E E   Q  E E E Q  E E E
||--------------------|-------------------|
||o-------------------|-------------------|
||--9--x-x-x-9--x-x-x-|-5--x-x-x-7--x-x-x-|
||--9--x-x-x-9--x-x-x-|-5--x-x-x-7--x-x-x-|
||o-7--x-x-x-7--x-x-x-|-3--x-x-x-5--x-x-x-|
||--------------------|-------------------|


     |-3-|    |-3-|      |-3-|    |-3-|
  Q  E E E Q  E E E   Q  E E E Q  E E E
|-------------------|-------------------|
|-------------------|-------------------|
|-9--x-x-x-9--x-x-x-|-------------------|
|-9--x-x-x-9--x-x-x-|-5--x-x-x-7--x-x-x-|
|-7--x-x-x-7--x-x-x-|-5--x-x-x-7--x-x-x-|
|-------------------|-3--x-x-x-5--x-x-x-|


     |-3-|    |-3-|      |-3-|    |-3-|
  Q  E E E Q  E E E   Q  E E E Q  E E E
|-------------------|-------------------|
|-------------------|-------------------|
|-9--x-x-x-9--x-x-x-|-5--x-x-x-7--x-x-x-|
|-9--x-x-x-9--x-x-x-|-5--x-x-x-7--x-x-x-|
|-7--x-x-x-7--x-x-x-|-3--x-x-x-5--x-x-x-|
|-------------------|-------------------|


     |-3-|    |-3-|      |-3-|    |-3-|
  Q  E E E Q  E E E   Q  E E E Q  E E E
|-------------------|--------------------|
|-------------------|--------------------|
|-9--x-x-x-9--x-x-x-|--------------------|
|-9--x-x-x-9--x-x-x-|-5--x-x-x-7--x-x-x--|
|-7--x-x-x-7--x-x-x-|-5--x-x-x-7--x-x-x--|
|-------------------|-3--x-x-x-5--x-x-x--|


 Chorus
  Gtr I
                                                   |-3-|      |-3-|    |-3-|
  H.      +E   E    +Q.   Q.   E E   +Q   E E +Q   E E E   Q  E E E Q  E E E
|----------------|-----------------|---------------------|--------------------|
|----------------|-----------------|---------------------|--------------------|
|-9-------(9)-12-|-(12)---9----7-9-|-(9)--x-9-(9)--x-x-x-|-5--x-x-x-7--x-x-x--|
|-9-------(9)-12-|-(12)---9----7-9-|-(9)--x-9-(9)--x-x-x-|-5--x-x-x-7--x-x-x--|
|-7-------(7)-10-|-(10)---7----5-7-|-(7)--x-7-(7)--x-x-x-|-3--x-x-x-5--x-x-x--|
|----------------|-----------------|---------------------|--------------------|
|
| Gtr II
|                                                             |-3-|    |-3-|
| H.      +E   E    +Q.   Q.   E E   +Q   E E +Q   Q       Q  E E E Q  E E E
|----------------|-----------------|---------------------|--------------------|
|----------------|-----------------|---------------------|--------------------|
|-9-------(9)-12-|-(12)---9----7-9-|-(9)--7-9-(9)--7-----|-5--x-x-x-7--x-x-x--|
|-9-------(9)-12-|-(12)---9----7-9-|-(9)--7-9-(9)--7-----|-5--x-x-x-7--x-x-x--|
|-7-------(7)-10-|-(10)---7----5-7-|-(7)--5-7-(7)--5-----|-3--x-x-x-5--x-x-x--|
|----------------|-----------------|---------------------|--------------------|


  H.      +E   E    +Q.   Q.   E E
|----------------|-----------------|
|----------------|-----------------|
|-9-------(9)-12-|-(12)---9----7-9-|
|-9-------(9)-12-|-(12)---9----7-9-|
|-7-------(7)-10-|-(10)---7----5-7-|
|----------------|-----------------|
|
| H.      +E   E    +Q.   Q.   E E
|----------------|-----------------|
|----------------|-----------------|
|-9-------(9)-12-|-(12)---9----7-9-|
|-9-------(9)-12-|-(12)---9----7-9-|
|-7-------(7)-10-|-(10)---7----5-7-|
|----------------|-----------------|

                       _______________
                      |1.
                |-3-|      |-3-|    |-3-|
  +Q   E E +Q   E E E   Q  E E E Q  E E E
|---------------------|---------------------||
|---------------------|--------------------o||
|-(9)--x-9-(9)--x-x-x-|-5--x-x-x-7--x-x-x---||
|-(9)--x-9-(9)--x-x-x-|-5--x-x-x-7--x-x-x---||
|-(7)--x-7-(7)--x-x-x-|-3--x-x-x-5--x-x-x--o||
|---------------------|---------------------||
|
|                          |-3-|
| +Q   E E +Q   Q       Q  E E E H
|---------------------|---------------------||
|---------------------|--------------------o||
|-(9)--7-9-(9)--7-----|-5--x-x-x-7----------||
|-(9)--7-9-(9)--7-----|-5--x-x-x-7----------||
|-(7)--9-7-(7)--5-----|-3--x-x-x-5---------o||
|---------------------|---------------------||


  ______________  Guitar Break
 |2.
     |-3-|          |-3--| |-3--|  |-3-| |-3-|   |-3-| |-3-| |-3-|
  Q  E E E H        E E  E E  E E  E E E E E E   E E E E E E E E E Q
|---------------||--9-7----7-------------------|------------------------||
|---------------||o-----10---10-8-10-8-7-8-7---|-7---------------------o||
|-5--x-x-x-7----||---------------------------9-|---9-7-9-7-6-7-6--------||
|-5--x-x-x-7----||-----------------------------|-----------------9-7----||
|-3--x-x-x-5----||o----------------------------|-----------------------o||
|---------------||-----------------------------|------------------------||
|
|    |-3-|          |-3--| |-3--|  |-3-| |-3-|   |-3-| |-3-| |-3-|
| Q  E E E H        E E  E E  E E  E E E E E E   E E E E E E E E E Q
|---------------||--5--------------------------|------------------------||
|---------------||o---8--7-8--7-5--7-5---5-----|-----------------------o||
|-5--x-x-x-7----||---------------------7---7-6-|-7-6-4-6-4---4----------||
|-5--x-x-x-7----||-----------------------------|-----------7---7-5-4----||
|-3--x-x-x-5----||o----------------------------|-----------------------o||
|---------------||-----------------------------|------------------------||


     |--3--|  |--3--|  |--3--|  |--3--|
     E  E  E  E  E  E  E  E  E  E  E  E
||--17-15-14-15-14----14----------------|
||o----------------17----17-15-17-15-14-|
||--------------------------------------|
||--------------------------------------|
||o-------------------------------------|
||--------------------------------------|
|
|    |--3--|  |--3--|  |--3--|  |--3--|
|    E  E  E  E  E  E  E  E  E  E  E  E
||--14-12----12-------------------------|
||o-------15----15-14-15-14-12-14-12----|
||-----------------------------------14-|
||--------------------------------------|
||o-------------------------------------|
||--------------------------------------|


   |--3--|  |--3--|  |--3--|             |-3--|    |-3--|
   E  E  E  E  E  E  E  E  E  Q          E  E E Q  E  E E Q
|---------------------------------||-||--7---------7----------||
|-15-14----14--------------------o||-||o---10-8-7----10-8-7--o||
|-------16----16-14-16-14---------||-||-----------------------||
|-------------------------17-16---||-||-----------------------||
|--------------------------------o||-||o---------------------o||
|---------------------------------||-||-----------------------||
|
|  |--3--|  |--3--|  |--3--|             |-3--|    |-3--|
|  E  E  E  E  E  E  E  E  E  Q          E  E E Q  E  E E Q
|---------------------------------||-||-----------------------||
|-12-----------------------------o||-||o-8--7-5----8--7-5----o||
|----14-12-14-12-11-12-11---------||-||---------7---------7---||
|-------------------------14-12---||-||-----------------------||
|--------------------------------o||-||o---------------------o||
|---------------------------------||-||-----------------------||

[ Tab from: http://www.guitartabs.cc/tabs/i/iron_maiden/running_free_tab_ver_3.html ]
    E E E E E E Q     E E E E E E Q
||------------------|-----------------|
||o-----------------|-----------------|
||--------------9---|-------------9---|
||--------------9---|-------------9---|
||o-------------7---|-------------7---|
||--0-0-0-0-0-0-0---|-0-0-0-0-0-0-0---|
|
|   E E E E E E E E   E E E E E E E E
||------------------|-----------------|
||o-----------------|-----------------|
||------------------|-----------------|
||--9-9-9-9-9-9-9-9-|-9-9-9-9-9-9-9-9-|
||o-7-7-7-7-7-7-7-7-|-7-7-7-7-7-7-7-7-|
||--0-0-0-0-0-0-0-0-|-0-0-0-0-0-0-0-0-|

                    ______________________
                   |1.,2.,3.
                    |-3-| |-3-| |-3-|
  E E E E E E Q     E E E E E E E E E Q
|-----------------|-------------------7\---||
|-----------------|-8-8-8-7-8-7-----------o||
|-------------9---|-------------7-7-7------||
|-------------9---|------------------------||
|-------------7---|-----------------------o||
|-0-0-0-0-0-0-0---|------------------------||
|
|                   |-3-| |-3-| |-3-|
| E E E E E E E E   E E E E E E E E E Q
|-----------------|-------------------3\---||
|-----------------|-5-5-5-3-3-3-----------o||
|-----------------|-------------4-4-4------||
|-9-9-9-9-9-9-9-9-|------------------------||
|-7-7-7-7-7-7-7-7-|-----------------------o||
|-0-0-0-0-0-0-0-0-|------------------------||


  ___________                                  Chorus
 |4.
  Gtrs I, II
  E E E E E E E E   Q  E Q  Q  E     H.      +E   E    +Q.   Q.   E E
|-----------------|--------------||-----------------|-----------------|
|-----------------|--------------||o----------------|-----------------|
|-----------------|-9----5--7--x-||--9-------(9)-12-|-(12)---9----7-9-|
|-9-9-9-9-9-9-9-9-|-9----5--7--x-||--9-------(9)-12-|-(12)---9----7-9-|
|-7-7-7-7-7-7-7-7-|-7----3--5--x-||o-7-------(7)-10-|-(10)---7----5-7-|
|-0-0-0-0-0-0-0-0-|-0------------||-----------------|-----------------|


                                             Interlude
  Gtr I
                |-3-|      |-3-|    |-3-|
  +Q   E E +Q   E E E   Q  E E E Q  E E E     E E Q  Q  E E   E E Q  Q  E E
|---------------------|--------------------||---------------|----------------|
|---------------------|-------------------o||---------------|----------------|
|-(9)--x-9-(9)--x-x-x-|-5--x-x-x-7--x-x-x--||-9-9---------7-|-9-9---------7--|
|-(9)--x-9-(9)--x-x-x-|-5--x-x-x-7--x-x-x--||-9-9---------7-|-9-9---------7--|
|-(7)--x-7-(7)--x-x-x-|-3--x-x-x-5--x-x-x-o||-7-7---------5-|-7-7---------5--|
|---------------------|--------------------||---------------|----------------|
|
| Gtr II
|                          |-3-|    |-3-|
| +Q   E E +Q   Q       Q  E E E Q  E E E     E E Q  Q  E E   E E Q  Q  E E
|---------------------|--------------------||---------------|----------------|
|---------------------|-------------------o||---------------|----------------|
|-(9)--7-9-(9)--7-----|-5--x-x-x-7--x-x-x--||-9-9---------7-|-9-9---------7--|
|-(9)--7-9-(9)--7-----|-5--x-x-x-7--x-x-x--||-9-9---------7-|-9-9---------7--|
|-(7)--5-7-(7)--5-----|-3--x-x-x-5--x-x-x-o||-7-7---------5-|-7-7---------5--|
|---------------------|--------------------||---------------|----------------|


  Gtrs I, II
  E E H.        E Q  E E Q  E   E E Q  Q  E E   E E Q  Q  E E
|-------------|---------------|---------------|---------------|
|-------------|---------------|---------------|---------------|
|-9-9---------|-5-5--5-7-7--7-|-9-9---------7-|-9-9---------7-|
|-9-9---------|-5-5--5-7-7--7-|-9-9---------7-|-9-9---------7-|
|-7-7---------|-3-3--3-5-5--5-|-7-7---------5-|-7-7---------5-|
|-------------|---------------|---------------|---------------|


  Gtr I
                                          |-3-|
  E E H.          E Q  E E Q  E   E E E E E E E Q
|-------------||----------------|-------5-7-5---5--|
|-------------||o---------------|-------------8----|
|-9-9---------||--5-5--5-7-7--7-|-9-9--------------|
|-9-9---------||--5-5--5-7-7--7-|-9-9--------------|
|-7-7---------||o-3-3--3-5-5--5-|-7-7--------------|
|-------------||----------------|------------------|
|
| Gtr II
|                                         |-3-|
| E E H.          E Q  E E Q  E   E E E E E E E Q
|-------------||----------------|------------------|
|-------------||o---------------|-------7-8-7-5-7--|
|-9-9---------||--5-5--5-7-7--7-|-9-9--------------|
|-9-9---------||--5-5--5-7-7--7-|-9-9--------------|
|-7-7---------||o-3-3--3-5-5--5-|-7-7--------------|
|-------------||----------------|------------------|


          |-3-|              |-3-|
  E E E E E E E Q    E E E E E E E Q
|-------5-7-5---5--|-------5-7-5---5---||
|-------------8----|-------------8----o||
|-9-9--------------|-9-9---------------||
|-9-9--------------|-9-9---------------||
|-7-7--------------|-7-7--------------o||
|------------------|-------------------||
|
|         |-3-|              |-3-|
| E E E E E E E Q    E E E E E E E Q
|------------------|-------------------||
|-------7-8-7-5-7--|-------7-8-7-5-7--o||
|-9-9--------------|-9-9---------------||
|-9-9--------------|-9-9---------------||
|-7-7--------------|-7-7--------------o||
|------------------|-------------------||


                   Verse
  Gtrs I, II
                       |-3-|    |-3-|      |-3-|    |-3-|
  E Q  E E Q  E     Q  E E E Q  E E E   Q  E E E Q  E E E
|---------------||--------------------|-------------------|
|---------------||o-------------------|-------------------|
|-5-5--5-7-7--7-||--9--x-x-x-9--x-x-x-|-5--x-x-x-7--x-x-x-|
|-5-5--5-7-7--7-||--9--x-x-x-9--x-x-x-|-5--x-x-x-7--x-x-x-|
|-3-3--3-5-5--5-||o-7--x-x-x-7--x-x-x-|-3--x-x-x-5--x-x-x-|
|---------------||--------------------|-------------------|


                                           Chorus
     |-3-|    |-3-|      |-3-|    |-3-|
  Q  E E E Q  E E E   Q  E E E Q  E E E     H.      +E   E    +Q.   Q.   E E
|-------------------|--------------------||----------------|-----------------|
|-------------------|-------------------o||----------------|-----------------|
|-9--x-x-x-9--x-x-x-|--------------------||-9-------(9)-12-|-(12)---9----7-9-|
|-9--x-x-x-9--x-x-x-|-5--x-x-x-7--x-x-x--||-9-------(9)-12-|-(12)---9----7-9-|
|-7--x-x-x-7--x-x-x-|-5--x-x-x-7--x-x-x-o||-7-------(7)-10-|-(10)---7----5-7-|
|-------------------|-3--x-x-x-5--x-x-x--||----------------|-----------------|


                |-3-|      |-3-|    |-3-|
  +Q   E E +Q   E E E   Q  E E E Q  E E E   H.      +E   E    +Q.   Q.   E E
|---------------------|-------------------|----------------|------------------|
|---------------------|-------------------|----------------|------------------|
|-(9)--x-9-(9)--x-x-x-|-5--x-x-x-7--x-x-x-|-9-------(9)-12-|-(12)---9----7-9--|
|-(9)--x-9-(9)--x-x-x-|-5--x-x-x-7--x-x-x-|-9-------(9)-12-|-(12)---9----7-9--|
|-(7)--x-7-(7)--x-x-x-|-3--x-x-x-5--x-x-x-|-7-------(7)-10-|-(10)---7----5-7--|
|---------------------|-------------------|----------------|------------------|


                |-3-|      |-3-|    |-3-|
  +Q   E E +Q   E E E   Q  E E E Q  E E E
|---------------------|-------------------|
|---------------------|-------------------|
|-(9)--x-9-(9)--x-x-x-|-5--x-x-x-7--x-x-x-|
|-(9)--x-9-(9)--x-x-x-|-5--x-x-x-7--x-x-x-|
|-(7)--x-7-(7)--x-x-x-|-3--x-x-x-5--x-x-x-|
|---------------------|-------------------|


   Outro
    H.      +E   E    +H.       +E   E
||-----------------|--------------------|
||o----------------|--------------------|
||--9-------(9)-12-|-(12)------(12)-14--|
||--9-------(9)-12-|-(12)------(12)-14--|
||o-7-------(7)-10-|-(10)------(10)-12--|
||-----------------|--------------------|

                   _____________________  __________
                  |1.,2.,3.             ||4.
  Gtr I
                       |-3-|    |-3-|        |-3-|
   H.       +E  E   Q  E E E Q  E E E     Q  E E E H
|-----------------|--------------------||---------------|
|-----------------|-------------------o||---------------|
|-14-------(14)-x-|-5--x-x-x-7--x-x-x--||-5--x-x-x-7----|
|-14-------(14)-x-|-5--x-x-x-7--x-x-x--||-5--x-x-x-7----|
|-12-------(12)-x-|-3--x-x-x-5--x-x-x-o||-3--x-x-x-5----|
|-----------------|--------------------||---------------|
|
| Gtr II
|                      |-3-|    |-3-|        |-3-|
|  H.       +E  E   Q  E E E Q  E E E     Q  E E E H
|-----------------|--------------------||---------------|
|---------------5-|-5-----------------o||-5--x-x-x-7----|
|-14-------(14)-5-|-5--x-x-x-7--x-x-x--||-5--x-x-x-7----|
|-14-------(14)-5-|-5--x-x-x-7--x-x-x--||-5--x-x-x-7----|
|-12-------(12)-3-|-3--x-x-x-5--x-x-x-o||-3--x-x-x-5----|
|-----------------|--------------------||---------------|


  |-3--| |-3--|  |-3-| |-3-|   |-3-| |-3-| |-3-| |-3-|    |-3--|  |--3--|
  E E  E E  E E  E E E E E E   E E E E E E E E E E E E    Q  Q Q  Q  Q  Q
|-9-7----7-------------------|-------------------------|-12-12---14-14----*|
|-----10---10-8-10-8-7-8-7---|-7-----------------------|------------------*|
|--------------------------9-|---9-7-9-7-6-7-6---6-----|------------------*|
|----------------------------|-----------------9---9-7-|------------------*|
|----------------------------|-------------------------|------------------*|
|----------------------------|-------------------------|------------------*|
|
| |-3--| |-3--|  |-3-| |-3-|   |-3-| |-3-| |-3-| |-3-|    |-3--|  |--3--|
| E E  E E  E E  E E E E E E   E E E E E E E E E E E E    Q  Q Q  Q  Q  Q
|-5--------------------------|-------------------------|--8--8----7--7\---*|
|---8--7-8--7-5--7-5---5-----|-------------------------|------------------*|
|--------------------7---7-6-|-7-6-4-6-4---4-----------|------------------*|
|----------------------------|-----------7---7-5-7-5-4-|------------------*|
|----------------------------|-------------------------|------------------*|
|----------------------------|-------------------------|------------------*|
Comments