Iron Maiden - Run To The Hills Chords & Tabs

 

Run To The Hills Chords & Tabs

Iron Maiden Chords & Tabs

Version: 9 Type: Tab 0 ratings
1 star 2 stars 3 stars 4 stars 5 stars
comments

Run To The Hills Tab

   
Run To The Hills
by Iron Maiden
  

Tabbed by Marvin Byrne (excellent!)

Intro (with distortion)

Key:
/ = End of a bar
~ = Vibrato
tr^^^^^ = Trill
> = accent (played harder)
.... = palm mute (lay palm across bridge for muffled sound)
b = bend

tuning E A D G b E


intro
Lead

E-----------------------------/
B--5-5-3--3-3-5---------------/
G----------------5-5-7--------/
D-----------------------5-5-7-/
A-----------------------------/
E-----------------------------/
                               repeat 4 times 

Rhythm                                On last time
E-----------------------------/     -->->->---             ---------
B-----------------------------/     ---------  in stead of ---------
G-----------------------------/     ---------              ---------
D---9-9-7--7-7-9---5-5-7------/     ------7--              ---------
A---7-7-5--5-5-7---3-3-5-5-5-7/     --5-5-5--              --5-5-7--
E------------------------3-3-5/     --3-3----              --3-3-5--
                 repeat 4 times






Riff 1
 (Does sound good palm muted)
   D5                C5  g/b C5 g/b C5
   ................. ....
E------------------------------------/
B------------------------------------/
G------------------------------------/       Heavy Picking!
D--77777777777777777-5555-55-55-55-55/
A--55555555555555555-3333-22-33-22-33/ 
E------------------------------------/
                                     Twice

Pre-Chourus

E---------------------------/-------------------------/
B---------------------------/-------------------------/
G---------------------------/-------------------------/
D---2-----------------------/---5---------------------/
A---0-----------------------/---3---------------------/
E---------------------------/-------------------------/

E--------------------------/------------/
B--------------------------/------------/
G--------------------------/------------/
D--------------------------/-7----------/
A--3-----------------------/-5----------/
E--1-----------------------/------------/

Chorus
E------/----/-----/----------------/-----/------------/
B------/----/-----/----------------/-----/------------/
G--0---/----/-----/--0-------------/-----/------------/
D--0---/----/--3--/--3----------0--/--5--/--5------5--/
A------/----/--3--/--3----------0--/--3--/--3------2--/
E--3---/--0-/--1--/--1-------------/-----/------------/

E-----/------------------/
B-----/------------------/
G--0--/------------------/
D--0--/------------------/
A-----/------------3---4-/
E--3--/--3--0--0---1---2-/           Twice then

                                                Only Play on second time before Solo
E-----------------/----------------------/    /-----/------/  
B-----------------/----------------------/    /-----/--12--/
G--0------------0-/--0--------------0---0/    /--0--/------/
D--0------------0-/--0--------------0---0/    /--0--/------/
A-----------------/----------------------/    /-----/------/
E--3------------3-/--3--------------3----/    /--3--/------/


(with distortion and wah-wah)

SOLO

E-----------------12---------------------------------------/
B--15b17~---------------15---15b17rb-15-12h15p12-----12-12-/
G------------------------------------------------14--------/
D----------------------------------------------------------/
A----------------------------------------------------------/
E----------------------------------------------------------/

E----------------------------------------------------------/
B----------------------------------------------------------/
G--14b16~----14b16rb14--12---------------------------------/
D---------------------------14---14~-----------------------/
A----------------------------------------------------------/
E----------------------------------------------------------/
[ Tab from: http://www.guitartabs.cc/tabs/i/iron_maiden/run_to_the_hills_tab_ver_9.html ]
E----------------------------------------------------------/
B----------------------------------------------------------/
G----------------------------12h14p12-----12h14p12---------/
D--12h14p12-----12h14p12--------------14-----------14------/
A-----------14-----------14--------------------------------/
E----------------------------------------------------------/

E-----------------------------12h15p12------12------12-----/
B---12h15p12-----12h15p12---------------15------15------15b/
G------------14-----------14-------------------------------/
D----------------------------------------------------------/
A----------------------------------------------------------/
E----------------------------------------------------------/

E---------12--15--12------12-------------------------------/
B--b17----------------15------15---12--15--12------12------/
G----------------------------------------------14----------/
D----------------------------------------------------------/
A----------------------------------------------------------/
E----------------------------------------------------------/

E-----14b15~--/
B-------------/
G-------------/
D-------------/
A-------------/
E-------------/

E---15p12h15p12h15p12h15p12--------------------------------/
B-----------------------------15p12h15p12h15p12h15p12h-----/
G----------------------------------------------------------/
D----------------------------------------------------------/
A----------------------------------------------------------/
E----------------------------------------------------------/

E----------------------------------------------------------/
B----------------------------------------------------------/
G---14p12h14p12h14p12h14p12h14-------------------------12--/
D--------------------------------12h14p12h14p12h14---------/
A----------------------------------------------------------/
E----------------------------------------------------------/

E-------------/    E--------/
B-------------/    B--------/
G---14b16-----/    G---12~--/
D-------------/    D--------/
A-------------/    A--------/
E-------------/    E--------/

(use tremolo {arm} here)
E----17~---------------------------------------------------/
B---------------------15~------------------17~-------------/
G----------------------------------------------------------/
D----------------------------------------------------------/
A----------------------------------------------------------/
E----------------------------------------------------------/

E----------------------------------------------------------/
B----------------------------------------------------------/
G----------14~------------16~------------------------------/
D------------------------------------------14~-------------/
A----------------------------------------------------------/
E----------------------------------------------------------/

E---17b19--------/
B----------------/
G----------------/
D----------------/
A----------------/
E----------------/

Bridge (bit after solo)
(you can palm mute)
E-----------------------------/
B-----------------------------/
G--2-2-2--4-4-4--5-5-5--7-7-7-/
D--2-2-2--4-4-4--5-5-5--7-7-7-/
A-----------------------------/
E-----------------------------/ played times 4

Chorus
 
E------/----/-----/----------------/-----/------------/
B------/----/-----/----------------/-----/------------/
G--0---/----/-----/--0-------------/-----/------------/
D--0---/----/--3--/--3----------0--/--5--/--5------5--/
A------/----/--3--/--3----------0--/--3--/--3------2--/
E--3---/--0-/--1--/--1-------------/-----/------------/

E-----/------------------/
B-----/------------------/
G--0--/------------------/
D--0--/------------------/
A-----/------------3---4-/
E--3--/--3--0--0---1---2-/   

E-----------------/----------------------/    /-----/------/  
B-----------------/----------------------/    /-----/--12--/
G--0------------0-/--0--------------0---0/    /--0--/------/
D--0------------0-/--0--------------0---0/    /--0--/------/
A-----------------/----------------------/    /-----/------/
E--3------------3-/--3--------------3----/    /--3--/------/

Ending
           then strum fast (very fast)!!
E--------/                 /-----/
B--------/                 /-----/
G--------/                 /-----/
D--5-4---/                 /-----/
A--3-2---/                 /--5--/
E--------/                 /--3--/
Comments