Iron Maiden - Run To The Hills Chords & Tabs

 

Run To The Hills Chords & Tabs

Iron Maiden Chords & Tabs

Version: 7 Type: Tab 0 ratings
1 star 2 stars 3 stars 4 stars 5 stars
comments

Run To The Hills Tab

   
intro
e|-12----12----10-------10----10----12-------8-----8-----10-------|
b|-15b17-15b17-13b15~~--13b15-13b15-15b17~~--11b13-11b13-13b15~~--|
g|----------------------------------------------------------------|    
D|----------------------------------------------------------------|----|
A|----------------------------------------------------------------|    |
E|----------------------------------------------------------------|    |
                                                                       |
                                                                       |--x4
e|----------------------|                                              |
b|-8-----8-----10-------|                                              |
g|-10b12-10b12-12b14~~--|                                              |
D|----------------------|----------------------------------------------|
A|----------------------|
E|----------------------|


e|-12----12----10-------10----10----12-------8-----8-----10-------|
b|-15b17-15b17-13b15~~--13b15-13b15-15b17~~--11b13-11b13-13b15~~--|
g|----------------------------------------------------------------|    
D|----------------------------------------------------------------|
A|----------------------------------------------------------------|    
E|----------------------------------------------------------------|  


e|-------------10-------|
b|-8-----8-----13b15~~--|
g|-10b12-10b12----------|
D|----------------------|
A|----------------------|
E|----------------------|  


e|-----------------------------------|
b|-----------------------------------|
g|-----------------------------------|
D|-7---7---7---7---7---7---7---7-----|
A|-5-555-555-555-555-555-555-555-55--|
E|-----------------------------------|
     **  **  **  **  **  **  **  **


verse 1
e|-----------------------------------|
b|-----------------------------------|
g|-----------------------------------|
D|-7---7---7---7---7---7---7---7-----|
A|-5-555-555-555-555-555-555-555-55--|
E|-----------------------------------|
     **  **  **  **  **  **  **  **


e|--------------------------|
b|--------------------------|
g|--------------------------|
D|-5---5---5---5---5-5-5-5--|
A|-3-333-333-333-333-2-3-2--|
E|--------------------------|
     **  **  **  **


e|-----------------------------------|
b|-----------------------------------|
g|-----------------------------------|
D|-7---7---7---7---7---7---7---7-----|
A|-5-555-555-555-555-555-555-555-55--|
E|-----------------------------------|
     **  **  **  **  **  **  **  **


e|--------------------------|
b|--------------------------|
g|--------------------------|
D|-5---5---5---5---5-5-5-5--|
A|-3-333-333-333-333-2-3-2--|
E|--------------------------|
     **  **  **  **


e|-------------------------------------|
b|-------------------------------------|
g|----------------------------------2--|
D|-2--------xx5--------xx---------xx0--|
A|-0--------xx3--------xx3--------xx0--|
E|-----------------------1-------------|


chorus
e|---------------------------------------------------|
b|---------------------------------------------------|
g|---------------------------------------------------|
D|------------------------------5-----5--------------|
A|-5-----5--3-----3-333--3-333--3-----3---5----------|
E|-3-----3--1-----1-110--1-110------------3----0-1-2-|
                  * ***  * ***

e|-------------------------------------------|
b|-------------------------------------------|
g|-------------------------------------------|
D|------------------------------5-----5------|
A|-5-----5--3-----3-333--3-333--3-----2---5--|
E|-3-----3--1-----1-110--1-110------------3--|
                  * ***  * ***

verse 2(same as verse 1)


solo - this isn't an exact version of the solo but if you play something along
the lines of this it will sound good enough.
e|--------------------------------|
b|-12-15b17~--15b17r15-12-15b17~--|
g|--------------------------------|
D|--------------------------------|
A|--------------------------------|
E|--------------------------------|


e|-------------------------------------------------|
b|--12h15p12----12h15p12---------------------------|
g|-----------14----------14p12----12h14p12-14b16~--|
D|-----------------------------14------------------|
A|-------------------------------------------------|
E|-------------------------------------------------|


e|--------------------------|
b|--------------------------|
g|-12h14p12----12-----------|
D|----------14----14~~~-14--|
A|--------------------------|
E|--------------------------|


e|---------------------------------------------------|
b|---------------------------------------------------|
g|--------------------------12h14p12----12h14p12-----|
D|--12h14p12----12h14p12-------------14----------14--|
A|-----------14----------14--------------------------|
E|---------------------------------------------------|


e|-------------------------12h15p12----12h15p12-----------------|
b|-12h15p12----12h15p12-------------15----------15p12----12-15--|
g|----------14----------14----------------------------14--------|
D|--------------------------------------------------------------|
A|--------------------------------------------------------------|
E|--------------------------------------------------------------|

[ Tab from: http://www.guitartabs.cc/tabs/i/iron_maiden/run_to_the_hills_tab_ver_7.html ]
e|-12----12h15p12----12h15p12-14b15~~--12--|
b|----15----------15-----------------------|
g|-----------------------------------------|
D|-----------------------------------------|
A|-----------------------------------------|
E|-----------------------------------------|


e|-15p12h15p12h15p12h15p12--------------------------------------------------|
b|-------------------------15p12h15p12h15p12h15p12--------------------------|
g|-------------------------------------------------14p12h14p12h14p12h14p12--|
D|--------------------------------------------------------------------------|
A|--------------------------------------------------------------------------|
E|--------------------------------------------------------------------------|


e|-----------------------------------------------------------------------|
b|-------------------------------15--------------------------------------|
g|-------------------------14b16----14b16~~--(16)r14p12----12/\/\/\/\/\--|
D|-14p12h14p12h14p12h14p12------------------------------14---------------|
A|-----------------------------------------------------------------------|
E|-----------------------------------------------------------------------|


e|-17/\/----------------------------------|
b|-------15/\/--17/\/---------------------|
g|--------------------14/\/--16/\/--------|
D|---------------------------------14/\/--|
A|----------------------------------------|
E|----------------------------------------|


e|-17b19~~~~--|
b|------------|
g|------------|
D|------------|
A|------------|
E|------------|


e|------------------------------------------------------------------|
b|------------------------------------------------------------------|
g|-2-----2-----2---4-----4-----4---5-----5-----5---7-----7-----7----|
D|-2-----2-----2---4-----4-----4---5-----5-----5---7-----7-----7----|
A|---0-0---0-0---0---0-0---0-0---0---0-0---0-0---0---0-0---0-0---0--|
E|------------------------------------------------------------------|
     * *   * *   *   * *   * *   *   * *   * *   *   * *   * *   *


e|---------------------------------------------------------------------------|
b|---------------------------------------------------------------------------|
g|-9-----9-----9---11-----11-----11---12-----12-----12---14-----14-----14----|
D|-7-----7-----7----9------9------9---10-----10-----10---12-----12-----12----|
A|---0-0---0-0---0----0-0----0-0----0----0-0----0-0----0----0-0----0-0----0--|
E|---------------------------------------------------------------------------|
     * *   * *   *    * *    * *    *    * *    * *    *    * *    * *    *


e|------------------------------------------------------------------|
b|------------------------------------------------------------------|
g|-2-----2-----2---4-----4-----4---5-----5-----5---7-----7-----7----|
D|-2-----2-----2---4-----4-----4---5-----5-----5---7-----7-----7----|
A|---0-0---0-0---0---0-0---0-0---0---0-0---0-0---0---0-0---0-0---0--|
E|------------------------------------------------------------------|
     * *   * *   *   * *   * *   *   * *   * *   *   * *   * *   *


e|------------------------------------------------------------------|
b|------------------------------------------------------------------|
g|-9-----9-----9---11-----11-----11---12-----12-----12---14---------|
D|-7-----7-----7----9------9------9---10-----10-----10---12---------|
A|---0-0---0-0---0----0-0----0-0----0----0-0----0-0----0--------x\--|
E|--------------------------------------------------------------x\--|
     * *   * *   *    * *    * *    *    * *    * *    *


outro-chorus 
e|---------------------------------------------------|
b|---------------------------------------------------|
g|---------------------------------------------------|
D|------------------------------5-----5--------------|
A|-5-----5--3-----3-333--3-333--3-----3---5----------|
E|-3-----3--1-----1-110--1-110------------3----0-1-2-|
                  * ***  * ***

e|----------------------------------------------------|
b|----------------------------------------------------|
g|----------------------------------------------------|
D|------------------------------5-----5---------------|
A|-5-----5--3-----3-333--3-333--3-----2---5-----------|
E|-3-----3--1-----1-110--1-110------------3----0-1-2--|
                  * ***  * ***

e|---------------------------------------------------|
b|---------------------------------------------------|
g|---------------------------------------------------|
D|------------------------------5-----5--------------|
A|-5-----5--3-----3-333--3-333--3-----3---5----------|
E|-3-----3--1-----1-110--1-110------------3----0-1-2-|
                  * ***  * ***
           
e|--------------------------------------------|
b|--------------------------------------------|
g|--------------------------------------------|
D|------------------------------5----------5--|
A|-5-----5--3-----3-333--3-333--3----------2--|
E|-3-----3--1-----1-110--1-110----------------|
                  * ***  * ***

e|----------------|
b|----------------|
g|----------------|
D|-5--------------|
A|-5--------------|
E|-3--------------|
  tremolo pick this chord


e|---------|
b|---------|
g|---------|
D|---------|
A|-5\------|
E|-3\------|


b = bend
r = release bend
h = hammer on
p = pull off
~ = vibrato
/\/ = whammy bar vibrato
x = muted string
x\ = pick slide
* = palm mute
\ = slide down
/ = slide up

song order:
intro
verse
chorus
verse
chorus
solo 
outro chorus

ENJOY!!!!!!!!!!!!!!!!!!!!
Comments