Iron Maiden - Run To The Hills Chords & Tabs

 

Run To The Hills Chords & Tabs

Iron Maiden Chords & Tabs

Version: 3 Type: Tab 2 ratings
1 star 2 stars 3 stars 4 stars 5 stars
comments

Run To The Hills Tab

   
As close as I could get it...insane song too


E|---------------------------------------------------------
B|---------------------------------------------------------
G|---9-9-7---7-7-7---5-5-7~--------------------------------
D|---7-7-7---7-7-7---5-5-7~--5-5-7-7-----------------------
A|-0-------0-----0-0-------0-5-5-7-7-0---------------------
E|---------------------------------------------------------
^^^^^^^Repeat 3 ¾ times^^^^^^

E|---------------------------------------------------------
B|---------------------------------------------------------
G|---------------------------------------------------------
D|55-7--7-7-7-7-7-7-7-7-7-7-7-7-7-7-7-7-7-7-7-7-7-7-7-7-7-7
A|55-5--5-5-5-5-5-5-5-5-5-5-5-5-5-5-5-5-5-5-5-5-5-5-5-5-5-5
E|---------------------------------------------------------

E|---------------------------------------------------------
B|---------------------------------------------------------
G|---------------------------------------------------------
D|7-7-7-7-7-7-7-7-7-7-7-7-7-7-7-7-7-7-7-5-5-5-5-5-5-5-5-5-5
A|5-5-5-5-5-5-5-5-5-5-5-5-5-5-5-5-5-5-5-3-3-3-3-3-3-3-3-3-3
E|---------------------------------------------------------

E|---------------------------------------------------------
B|---------------------------------------------------------
G|---------------------------------------------------------
D|5-5-5-5-5-5-5-5-5-5--------------------------------------
A|3-3-3-3-2-2-3-3-2-2--------------------------------------
E|---------------------------------------------------------

E|--------------------------------------------------------
B|--------------------------------------------------------
G|--------------------------------------------------------
D|2---5---------------------------------------------------
A|0---3---3---7-7-7-7-7-7-7-7-7-7-7-7-7-7-7-7-7-7-7-7-7-7-
E|--------1---5-5-5-5-5-5-5-5-5-5-5-5-5-5-5-5-5-5-5-5-5-5—
            Palm Mute|-----------------------------------------------------------------------------|

E|--------------------------------
B|--------------------------------
G|----------------5---------------
D|5-------3-------5-----5-5-------
A|5-------3-------3-----2-5-------
E|3-------1---------------3-------




************Solo************
E|----------12--12--12---12--------------
B|15b-15b~------------15b--15-12-15-12---
G|------------12--14-------------------14
D|---------------------------------------
A|---------------------------------------
E|---------------------------------------

E|--------------------------------
B|-12-----------------------------
G|----14b~-14b-14-12-14-12-12-----
D|----------------------------14~-
A|--------------------------------
E|--------------------------------
[ Tab from: http://www.guitartabs.cc/tabs/i/iron_maiden/run_to_the_hills_tab_ver_3.html ]
E|---------
B|---------
G|---------
D|------12-
A|12-14----
E|---------
vvvvvvvvvvvvvv Repeat 3x vvvvvvvvvv
E|---------------------------------------------------------
B|---------------------------------------------------------
G|---------------------------------------------------------
D|--------------------------------------------5-5-5-5-5-5-5
A|2-2-2-2-2-2-2-2-2-2---5-5-5-5-5-5-5-5-5-5-2-3-3-3-3-3-3-3
E|0-0-0-0-0-0-0-0-0-0-2-3-3-3-3-3-3-3-3-3-3----------------

E|-----------------------
B|-----------------------
G|-----------------------
D|5-5-5------------------
A|3-3-3-2-3-2-3-2-3-2----
E|--------------------3-3
^^^^^^^^^^^^^^^^^^^^^^^^^^Repeat 3x^^^^^^^^^^^^^^^^^^^^^^^^


E|--------------------------------------------------------
B|---------------------------------12-14-12----12-15\-/12-
G|------------12-12-14-12----12-14----------14------------
D|14-12----12-------------14------------------------------
A|------14------------------------------------------------
E|--------------------------------------------------------

E|10-12-10-10-12-10-12----12-10-12-10-10-12-12-10----10-12-
B|---------------------12-------------------------12-------
G|---------------------------------------------------------
D|---------------------------------------------------------
A|---------------------------------------------------------
E|---------------------------------------------------------

E|12~~~~/15-12-15-15-12-15-12-15-12----12------------------
B|----------------------------------15----15-12-15-12-15-12
G|---------------------------------------------------------
D|---------------------------------------------------------
A|---------------------------------------------------------
E|---------------------------------------------------------





E|-------------------------------------------------------
B|------------------------------15-------15b-15------15pb
G|12-14-12-14-12-14-14-14-12----------12-14b----14pb-14pb
D|---------------------------14----14--------------------
A|-------------------------------------------------------
E|-------------------------------------------------------


E|---------17~-----12~-----------0-12-15b-15\\\
B|-------------15~---------12~-0---------------
G|15-12~~~-------------14~---------------------
D|---------------------------------------------
A|---------------------------------------------
E|---------------------------------------------


E|:--------------------------------------------------------
B|:10-----10-----10-----12-----12-----12---13-----13-----13
G|:9------9------9------11-----11-----11---12-----12-----12
D|:7------7------7------9------9------9----10-----10-----10
A|:---0-0----0-0----0-0----0-0----0-0----0----0-0----0-0---
E|:--------------------------------------------------------

------------------:|
--15-----15~------:|
--14-----14~------:|
          --12-----12-------:| Repeat 4x
-0----0-0-----0---:|
------------------:|


E|---------------------------------------------------------
B|---------------------------------------------------------
G|5-------=------------------------------------------------
D|5-----5-5--5---------------------------------------------
A|3-----2-5--5---------------------------------------------
E|--------3--3---------------------------------------------
           
Comments