Iron Maiden - Run To The Hills Chords & Tabs

 

Run To The Hills Chords & Tabs

Iron Maiden Chords & Tabs

Version: 4 Type: Bass Tab

Run To The Hills Bass Tab

   
RUN TO THE HILLS
IRON MAIDEN
STANDARD TUNING

INTRO
                              (WHEN INTRO RIFF IS PLAYED FOR THE LAST
                              TIME,REPLACE THE LAST NOTE WITH OPEN D.)    
G-9-9-7--7-7-9--5-7-7---------|-9-9-7--7-7-9--5-7-7----------|
D----------------------5-5-7--|----------------------5-5-0---|
A-----------------------------|------------------------------|
E-----------------------------|------------------------------|


PLAYED BEFORE LYRICS COME BACK IN.

G---------------------|---------------------|
D---------------------|---------------------|
A-5-55-5-55-5-55-5-55-|-5-55-5-55-5-55-5-55-|
E---------------------|---------------------|

VERSE

G---------------------|---------------------|---------------------|
D---------------------|---------------------|---------------------|
A-5-55-5-55-5-55-5-55-|-5-55-5-55-5-55-5-55-|-3-33-3-33-3-33-3-33-|
E---------------------|---------------------|---------------------|

G-----------------|
D-----------------|
A-3-3-2-2-3-3-2-2-|
E-----------------|


PRE-CHORUS

G---------------------|---------------------|---------------------|
D---------------------|---------------------|---------------------|
A-0-00-0-00-0-00-0-00-|-3-33-3-33-3-33-3-33-|---------------------|
E---------------------|---------------------|-1-11-1-11-1-11-1-11-|

G---------------------|---------------------|
D---------------------|---------------------|
A-5-55-5-55-5-55-5-55-|-5-55-5-55-5-55-5-55-|
E---------------------|---------------------|

CHORUS

G---------------------|---------------------|---------------------|
D---------------------|---------------------|---------------------|
A---------------------|---------------------|---------------------|
E-3-33-3-33-3-33-3-33-|-3-33-3-33-3-33-3-33-|-1-11-1-11-1-11-1-11-|

G---------------------|---------------------|---------------------|
D---------------------|---------------------|---------------------|
A---------------------|-3-33-3-33-3-33-3-33-|-3-33-3-33-3-33-3-33-|
E-1-11-1-11-1-11-1-11-|---------------------|---------------------|
       >         >

PLAYED AT THE   PLAYED AT THE END OF THE CHORUS THE SECOND 
OF THE CHORUS   TIME.
FIRST TIME. 

G------------||---------------------|---------------------||
D------------||---------------------|---------------------||
A------------||---------------------|---------------------||
E-3--0--1--2-||-3-33-3-33-3-33-3-33-|-3-33-3-33-3-33-3-33-||
[ Tab from: http://www.guitartabs.cc/tabs/i/iron_maiden/run_to_the_hills_btab_ver_4.html ]
GUITAR SOLO
G------------------------------------------------|---------------|
D-2-22-2-22-2-24-5-55-5-55-5-55-4----------------|---------------|
A---------------------------------3-33-3-33-3-33-|-2-3-2-3-2-3---|
E------------------------------------------------|-------------3-|

INTERLUDE

G-----------------------------------7-5-5-7-5-5-7-5-5-9-7-7-9-7-7-9-7-7-|
D-9-7-7-9-7-7-9-7-7-5-5-7-5-5-7-5-5-------------------------------------|
A-----------------------------------------------------------------------|
E-----------------------------------------------------------------------|
                
G-11-9-9-11-9-9-11-9-9-14-12-12-14-12-12-14-12-12-16-14-14-16-14-14-16-14-|
D-------------------------------------------------------------------------|
A-------------------------------------------------------------------------|
E-------------------------------------------------------------------------|
 YEAH_____________________________________.AH______________________________

G-16-16-16-16-16-16-16-\\\3-|
D---------------------------|
A---------------------------|
E---------------------------|
____________________________.

OUTRO/CHORUS

G---------------------|---------------------|---------------------|
D.--------------------|---------------------|---------------------|
A.--------------------|---------------------|---------------------|
E-3-33-3-33-3-33-3-33-|-3-33-3-33-3-33-3-33-|-1-11-1-11-1-11-1-11-|

G---------------------|---------------------|---------------------|
D---------------------|---------------------|---------------------|
A---------------------|-3-33-3-33-3-33-3-33-|-3-33-3-33-3-33-3-33-|
E-1-11-1-11-1-11-1-11-|---------------------|---------------------|

G---------------------|-------------||
D---------------------|------------.||
A---------------------|------------.||
E-3-33-3-33-3-33-3-33-|-3--0--1--2--||

G---------------------|---------------------|---------------------|
D---------------------|---------------------|---------------------|
A---------------------|---------------------|---------------------|
E-3-33-3-33-3-33-3-33-|-3-33-3-33-3-33-3-33-|-1-11-1-11-1-11-1-11-|

G---------------------|-----------------|----------------------------------|
D---------------------|-----------------|-7-7-7-7-7-5---5---5--------------|
A---------------------|-3------2--------|-------------7---7---765----------|
E-1-11-1-11-1-11-1-11-|--------------3--|------------------------7-65\4-3\/|
                       RUN__ FOR YOUR__ LIVES_______________________________
G-----|
D-----|
A-----|
E-3---|
__.

PLEASE RATE.