Iron Maiden - Remember Tomorrow Chords & Tabs

 

Remember Tomorrow Chords & Tabs

Iron Maiden Chords & Tabs

Version: 2 Type: Tab 0 ratings
1 star 2 stars 3 stars 4 stars 5 stars
comments

Remember Tomorrow Tab

#----------------------------------PLEASE NOTE---------------------------------#
#This file is the author's own work and represents their interpretation of the #
#song. You may only use this file for private study, scholarship, or research. #
#------------------------------------------------------------------------------#
#


From wigren@skelleftea.mail.telia.com Sun May  4 11:04:05 1997
Date: Tue, 18 Mar 1997 15:16:02 +0100
From: wigren@skelleftea.mail.telia.com
Tabber:OSKAR WIGREN 
Subject: Tab IRON MAIDEN Remember tomorrow




REMEMBER TOMORROW
Written by Steve Harris and Paul Di'Anno.
Performed by IRON MAIDEN.
Taken from the album IRON MAIDEN.


Transcribed by Oskar "The Seventh Son" Wigren.
E-mail me at wigren@skelleftea.mail.telia.com

E----7-----7-----7-----7-----7------|--8-------8-------8----7-----7-----7----|
B------8-----8-----8-----8-----8----|----10------10------10---8-----8-----8--|
G--9-----9-----9-----9-----9-----9--|-------10------10----------9-----9------|
D-----------------------------------|----------------------------------------|
A-----------------------------------|----------------------------------------|
E-----------------------------------|----------------------------------------|

   
E----7-----7-----7-----7-----7------|--8-------8-------8----7-----7-----7----|
B------8-----8-----8-----8-----8----|----10------10------10---8-----8-----8--|
G--9-----9-----9-----9-----9-----9--|-------10------10----------9-----9------|
D-----------------------------------|----------------------------------------|
A-----------------------------------|----------------------------------------|
E-----------------------------------|----------------------------------------|

   
E----7-----7-----7-----7-----7------|--8-------8-------8----7-----7-----7----|
B------8-----8-----8-----8-----8----|----10------10------10---8-----8-----8--|
G--9-----9-----9-----9-----9-----9--|-------10------10----------9-----9------|
D-----------------------------------|----------------------------------------|
A-----------------------------------|----------------------------------------|
E-----------------------------------|----------------------------------------|

   
E----7-----7-----7-----7-----7------|--8-------8-------8----7-----7-----7----|
B------8-----8-----8-----8-----8----|----10------10------10---8-----8-----8--|
G--9-----9-----9-----9-----9-----9--|-------10------10----------9-----9------|
D-----------------------------------|----------------------------------------|
A-----------------------------------|----------------------------------------|
E-----------------------------------|----------------------------------------|

Riff 2:
E------------------------|---------------------------|
B------------------------|---------------------------|
G------------------------|---------------------------|
D-----------4---4--------|-----------5---5-----------|
A--2--------2---2--5--4--|--5--------3---3--3-2------|
E--0---0-0---------3--2--|--3---3-3-------------3-2--|

E------------------------|---------------------------|
B------------------------|---------------------------|
G------------------------|---------------------------|
D-----------4---4--------|-----------5---5-----------|
A--2--------2---2--5--4--|--5--------3---3--3-2------|
E--0---0-0---------3--2--|--3---3-3-------------3-2--|
[ Tab from: http://www.guitartabs.cc/tabs/i/iron_maiden/remember_tomorrow_tab_ver_2.html ]
E------------------------|---------------------------|
B------------------------|---------------------------|
G------------------------|---------------------------|
D-----------4---4--------|-----------5---5-----------|
A--2--------2---2--5--4--|--5--------3---3--3-2------|
E--0---0-0---------3--2--|--3---3-3-------------3-2--|

E------------------------|---------------------------|
B------------------------|---------------------------|
G------------------------|---------------------------|
D-----------4---4--------|-----------5---------------|
A--2--------2---2--5--4--|--5--------3---------------|
E--0---0-0---------3--2--|--3---3-3------------------|

Fill before second verse:
E----7-----7-----7-----7-----7------|--7-----7-----7-----7-----7------|
B------8-----8-----8-----8-----8----|----8-----8-----8-----8-----8----|
G--9-----9-----9-----9-----9-----9--|------9-----9-----9-----9-----9--|
D-----------------------------------|---------------------------------|
A-----------------------------------|---------------------------------|
E-----------------------------------|---------------------------------|

Riff 3:
E--------------------------------|--------------------------|
B--------------------------------|--------------------------|
G--------------------------------|--------------------------|
D--7-------7-------7-------5--5--|--7-------7-------5--5-5--|
A--5---5-5-5---5-5-5---5-5-3--3--|--5---5-5-5---5-5-3--3-3--|
E--------------------------------|--------------------------|

Riff 4:
E----------------------------------|---------------------------------|
B----------------------------------|---------------------------------|
G----------------------------------|---------------------------------|
D--9-------9-------9-------12--12--|--9-------9-------12--12--12-14--|
A--7---7-7-7---7-7-7---7-7-10--10--|--7---7-7-7---7-7-10--10--10-12--|
E----------------------------------|---------------------------------|

Riff 5:
E-------------------------------|-------------------------------|
B-------------------------------|-------------------------------|
G--------------5-5-5-5-5-5-3----|--------------7-7-7-7-7-7-5----|
D----------------------------5--|----------------------------7--|
A--3-3-3-3-3-3------------------|--5-5-5-5-5-5------------------|
E-------------------------------|-------------------------------|

E-------------------------------|-------------------------------|
B-------------------------------|-------------------------------|
G--------------4-4-4-4-4-4-2----|--------------5-5-5-5-5-5-3----|
D----------------------------4--|----------------------------5--|
A--2-2-2-2-2-2------------------|--3-3-3-3-3-3------------------|
E-------------------------------|-------------------------------|

E-------------------------------|-------------------------------|
B-------------------------------|-------------------------------|
G--------------5-5-5-5-5-5-3----|--------------7-7-7-7-7-7-5----|
D----------------------------5--|----------------------------7--|
A--3-3-3-3-3-3------------------|--5-5-5-5-5-5------------------|
E-------------------------------|-------------------------------|

E-------------------------------|-------------------------------|
B-------------------------------|-------------------------------|
G--------------4-4-4-4-4-4-2----|-------------------------------|
D----------------------------4--|--5-----------7----------------|
A--2-2-2-2-2-2------------------|--3-----------5----------------|
E-------------------------------|-------------------------------|

Songstructure:
Bass-intro
Verse 1
Riff 2
Fill
Verse 2
Riff 2
Riff 3 (4 times)
Riff 4 (4 times)
Riff 5
Riff 4 (4 times)
Riff 5
Riff 1 (1/2 time)
Verse 3
Riff 2 (2 times)
END
Comments