Iron Maiden - Rainmaker Chords & Tabs

 

Rainmaker Chords & Tabs

Iron Maiden Chords & Tabs

Version: 1 Type: Chords 3 ratings
1 star 2 stars 3 stars 4 stars 5 stars
comments

Rainmaker Chords

RAINMAKER by IRON MAIDEN

This tab is 100% complete. Enjoy!!!

(To get the timing right, you need to listen to the song).

Intro 

e|-------------------------------|------------------------------|----------------------------------|
B|------------------15---------13|------------------------------|-------------------15---------13--|
G|---------------14--------------|-----------15-----12--14------|---------------14-----------------|
D|----12--14--15--------0--14----|----0--12-----------------15--|----0--14--15----------0--14------|
A|-------------------------------|------------------------------|----------------------------------|
E|-------------------------------|------------------------------|----------------------------------|

e|------------------------------|----------------------------------|------------------------------|
B|------------------------------|-------------------15---------13--|------------------------------|
G|-----------15-----12--14------|---------------14-----------------|-----------15-----12--14------|
D|----0--12-----------------15--|----0--14--15----------0--14------|----0--12-----------------15--|
A|------------------------------|----------------------------------|------------------------------|
E|------------------------------|----------------------------------|------------------------------|

e|----------------------------------|-------------------------------|
B|-------------------15-------------|----------------15-------------|
G|---------------14------14---------|------------14------14---------|
D|----0--14--15--------------15--0--|----14--15--------------15-----|
A|----------------------------------|----------------------------7--|
E|----------------------------------|----------------------------5--|


Verse

e|----------------------|----------------------|---------------------------|------------------------------|
B|----------------------|----------------------|---------------------------|------------------------------|
G|----------------------|----------------------|---------------------------|------------------------------|
D|----7---7--7--7--7--8-|----8--8--8--8--8--10-|----10--10--10--10--10--10-|----10--10--10--10--10--10--7-|
A|----5---5--5--5--5--5-|----5--5--5--5--5--8--|----8---8---8---8---8---7--|----7---7---7---7---7---7---5-|
E|----------------------|----------------------|---------------------------|------------------------------|

e|----------------------|----------------------|---------------------------|------------------------------|
B|----------------------|----------------------|---------------------------|------------------------------|
G|----------------------|----------------------|---------------------------|------------------------------|
D|----7---7--7--7--7--8-|----8--8--8--8--8--10-|----10--10--10--10--10--10-|----10--10--10--10--10--10--7-|
A|----5---5--5--5--5--5-|----5--5--5--5--5--8--|----8---8---8---8---8---7--|----7---7---7---7---7---7---5-|
E|----------------------|----------------------|---------------------------|------------------------------|

e|----------------------|----------------------|---------------------------|------------------------------|
B|----------------------|----------------------|---------------------------|------------------------------|
G|----------------------|----------------------|---------------------------|------------------------------|
D|----7---7--7--7--7--8-|----8--8--8--8--8--10-|----10--10--10--10--10--10-|----10--10--10--10--10--10--3-|
A|----5---5--5--5--5--5-|----5--5--5--5--5--8--|----8---8---8---8---8---7--|----7---7---7---7---7---7---1-|
E|----------------------|----------------------|---------------------------|------------------------------|

e|---------------------|-------------------------|---------------------|---------------------|
B|---------------------|-------------------------|---------------------|---------------------|
G|---------------------|-------------------------|---------------------|-------------------2-|
D|----3--3--3--3--3--3-|----3---3--3--3--3--3--5-|----5--5--5--5--5--5-|----5--5--5--------0-|
A|----1--1--1--1--1--1-|----1---1--1--1--1--1--3-|----3--3--3--3--3--3-|----3--3--3--------0-|
E|---------------------|-------------------------|---------------------|-------------3--2--0-|


Pre Chorus

e|---------------------|---------------------|---------------------|---------------------|
B|---------------------|---------------------|---------------------|---------------------|
G|----2----------------|---------------------|---------------------|---------------------|
D|----0---------3------|----3---------3------|--------------5------|--------------5------|
A|----0---------3------|----3---------1------|--------------3------|--------------5------|
E|----0---------3------|----3----------------|---------------------|--------------5------|

e|---------------------|---------------------|---------------------|---------------------|
B|---------------------|---------------------|---------------------|--------------3------|
G|---------------------|---------------------|---------------------|--------------2------|
D|--------------3------|--------------3------|--------------3--5---|--------------0------|
A|--------------1------|--------------3------|--------------3--3---|--------------0------|
E|---------------------|--------------3------|--------------3------|--------------0------|

e|---------------------|---------------------|---------------------|---------------------|
B|---------------------|---------------------|---------------------|---------------------|
G|---------------------|---------------------|---------------------|---------------------|
D|--------------3------|--------------3------|-----------------5---|--------------5------|
A|--------------3------|--------------1------|-----------------3---|--------------5------|
E|--------------3------|---------------------|---------------------|--------------5------|

e|---------------------|---------------------|---------------------|---------------------|
B|---------------------|--------------6------|-----------------5---|--------------6------|
G|---------------------|--------------5------|-----------------5---|--------------7------|
D|--------------3------|--------------3------|-----------------3---|-----------0--0------|
A|--------------1------|--------------3------|-----------------3---|---------------------|
E|---------------------|---------------------|---------------------|---------------------|


Chorus

e|----------------------|----------------------|----------------------|----------------------|
B|-------------6-----8--|-------------8-----6--|-------------6-----8--|-------------8-----6--|
G|-------------7-----7--|-------------7-----7--|-------------7-----7--|-------------7-----7--|
D|----0-----------0-----|----0-----------0-----|----0-----------0-----|----0-----------0-----|
A|----------------------|----------------------|----------------------|----------------------|
E|-------0--0-----------|-------0--0-----------|-------0--0-----------|-------0--0-----------|

e|----------------------|----------------------|-------------------------|----------------------|
B|-------------6-----7--|-------------8-----6--|-------------------------|-------------------6--|
G|-------------7-----8--|-------------7-----5--|-------------------------|----5-----5--5-----7--|
D|----0-----------0-----|----0-----------0--3--|-------3--------3-----5--|----5-----5--5-----0--|
A|----------------------|-------------------3--|-------3--------3-----5--|----3--3-----3--------|
E|-------0--0-----------|-------0--0--------3--|----3-----3--3-----3--3--|----------------0-----|


e|----------------------|----------------------|----------------------|----------------------|
B|-------------6-----8--|-------------8-----6--|-------------6-----8--|-------------8-----6--|
G|-------------7-----7--|-------------7-----7--|-------------7-----7--|-------------7-----7--|
D|----0-----------0-----|----0-----------0-----|----0-----------0-----|----0-----------0-----|
A|----------------------|----------------------|----------------------|----------------------|
E|-------0--0-----------|-------0--0-----------|-------0--0-----------|-------0--0-----------|

e|----------------------|----------------------|-------------------------|----------------------|
B|-------------6-----7--|-------------8-----6--|-------------------------|--------------------3-|
G|-------------7-----8--|-------------7-----5--|-------------------------|--------------------2-|
D|----0-----------0-----|----0-----------0--3--|-------3--------3-----5--|--------------------0-|
A|----------------------|-------------------3--|-------3--------3-----5--|--------------------0-|
E|-------0--0-----------|-------0--0--------3--|----3-----3--3-----3--3--|--------------3--2--0-|


Guitar Solo - The other guitarist continues with the pre chorus during this.

e|---------------------------------|----------------------------------------------10--|
B|----13--10----------13--10-------|------------------10--11--10------10--11--13------|
G|------------12--------------12---|--12------10--12--------------12------------------|
D|---------------------------------|------12------------------------------------------|
A|---------------------------------|--------------------------------------------------|
E|---------------------------------|--------------------------------------------------|

e|-----10--13--10------10--------------------------|--------------10--13--10--12--10--|
B|--13-------------13------13--10------10----------|----------13----------------------|
G|---------------------------------12------13--12--|----(12)--------------------------|
D|-------------------------------------------------|----------------------------------|
A|-------------------------------------------------|----------------------------------|
E|-------------------------------------------------|----------------------------------|

e|--------10--13--10----------13/15--15--15--|----15--17--15------15--17--18---|
B|----13--------------10--13-----------------|----------------18---------------|
G|-------------------------------------------|---------------------------------|
D|-------------------------------------------|---------------------------------|
A|-------------------------------------------|---------------------------------|
E|-------------------------------------------|---------------------------------|
[ Tab from: http://www.guitartabs.cc/tabs/i/iron_maiden/rainmaker_crd.html ]
e|----17-18-17-15--17-15-17-15----15-17-15----15-17-|-15-17-15----15-17-15-17-15----15-17-15-------|
B|-----------------------------18----------18-------|----------18----------------18----------18-18-|
G|--------------------------------------------------|----------------------------------------------|
D|--------------------------------------------------|----------------------------------------------|
A|--------------------------------------------------|----------------------------------------------|
E|--------------------------------------------------|----------------------------------------------|

e|-15-17-15-----15-17--18-18-----18--|--17-15/17-17-18-17/15-17-15-|------------------------|
B|----------18-----------------------|-----------------------------|-18-17---------------15-|
G|-----------------------------------|-----------------------------|-------19-19-19---17----|
D|-----------------------------------|-----------------------------|------------------------|
A|-----------------------------------|-----------------------------|------------------------|
E|-----------------------------------|-----------------------------|------------------------|

e|------------------15-17-18-17-15-17-15-|-------------------------17--|
B|---17-18-15-17-18----------------------|-18-17-18-17-15--17--18------|
G|---------------------------------------|-----------------------------|
D|---------------------------------------|-----------------------------|
A|---------------------------------------|-----------------------------|
E|---------------------------------------|-----------------------------|

e|----------------20----------20-----|------20------20------20--------|
B|----18--17--18------17--18------17-|--18------17--------------------|
G|-----------------------------------|--------------------------------|
D|-----------------------------------|--------------------------------|
A|-----------------------------------|--------------------------------|
E|-----------------------------------|--------------------------------|


Part after Solo - This is played with two guitarists.

Guitar 1:

e|----7--9--10--9--7-----|----------------7------|----------------------|-----------------------|
B|--------------------7--|------------10-----10--|-------------8--7--8--|----7-----7------------|
G|-----------------------|-----------------------|----------------------|-------9------9--7--7--|
D|-----------------------|-----------------------|----------------------|-----------------------|
A|-----------------------|-----------------------|----------------------|-----------------------|
E|-----------------------|-----------------------|----------------------|-----------------------|

e|----7--9--10--7--14----|-----------12--10--12--|-----------10--9--10--|--7--7--9----7------7--|
B|-----------------------|-----------------------|----------------------|----------------10-----|
G|-----------------------|-----------------------|----------------------|-----------------------|
D|-----------------------|-----------------------|----------------------|-----------------------|
A|-----------------------|-----------------------|----------------------|-----------------------|
E|-----------------------|-----------------------|----------------------|-----------------------|

e|----7--9--10--9--7-----|----------------7------|----------------------|-----------------------|
B|--------------------7--|------------10-----10--|-------------8--7--8--|----7-----7------------|
G|-----------------------|-----------------------|----------------------|-------9------9--7--7--|
D|-----------------------|-----------------------|----------------------|-----------------------|
A|-----------------------|-----------------------|----------------------|-----------------------|
E|-----------------------|-----------------------|----------------------|-----------------------|

e|----7--9--10--7--14----|-----------12--10--12--|-----------10--9--10--|--7--7--9----7------6--|
B|-----------------------|-----------------------|----------------------|----------------10--7--|
G|-----------------------|-----------------------|----------------------|--------------------0--|
D|-----------------------|-----------------------|----------------------|-----------------------|
A|-----------------------|-----------------------|----------------------|-----------------------|
E|-----------------------|-----------------------|----------------------|-----------------------|


Guitar 2:

e|-----------------------|-----------------------|----------------------|-----------------------|
B|-----------------------|-----------------------|----------------------|-----------------------|
G|----7--9--11--9--7--7--|--------------6--7--6--|-------------6--6--7--|----6-----6------------|
D|-----------------------|-----------------------|----------------------|-------9------9--7--9--|
A|-----------------------|-----------------------|----------------------|-----------------------|
E|-----------------------|-----------------------|----------------------|-----------------------|

e|-----------------------|-----------------------|----------------------|-----------------------|
B|-----------------------|-----------------------|----------------------|-----------------------|
G|-----------------------|-----------------------|----------------------|--------------------7--|
D|----7--9--11--9--7-----|--------------6--7--6--|-------------4-----4--|----7--5--7---5--4-----|
A|-----------------------|-----------------------|----------------7-----|-----------------------|
E|-----------------------|-----------------------|----------------------|-----------------------|


e|-----------------------|-----------------------|----------------------|-----------------------|
B|-----------------------|-----------------------|----------------------|-----------------------|
G|----7--9--11--9--7--7--|--------------6--7--6--|-------------6--6--7--|----6-----6------------|
D|-----------------------|-----------------------|----------------------|-------9------9--7--9--|
A|-----------------------|-----------------------|----------------------|-----------------------|
E|-----------------------|-----------------------|----------------------|-----------------------|


e|-----------------------|-----------------------|----------------------|-----------------------|
B|-----------------------|-----------------------|----------------------|-----------------------|
G|-----------------------|-----------------------|----------------------|-----------------------|
D|----7--9--11--9--7-----|--------------6--7--6--|-------------4-----4--|----7--5--7---5--4-----|
A|-----------------------|-----------------------|----------------7-----|-----------------------|
E|-----------------------|-----------------------|----------------------|-----------------------|

 
Both guitarists play the pre chorus:

e|---------------------|---------------------|---------------------|---------------------|
B|---------------------|---------------------|---------------------|---------------------|
G|----2----------------|---------------------|---------------------|---------------------|
D|----0---------3------|----3---------3------|--------------5------|--------------5------|
A|----0---------3------|----3---------1------|--------------3------|--------------5------|
E|----0---------3------|----3----------------|---------------------|--------------5------|


e|---------------------|---------------------|---------------------|---------------------|
B|---------------------|---------------------|---------------------|--------------3------|
G|---------------------|---------------------|---------------------|--------------2------|
D|--------------3------|--------------3------|--------------3--5---|--------------0------|
A|--------------1------|--------------3------|--------------3--3---|--------------0------|
E|---------------------|--------------3------|--------------3------|--------------0------|

e|---------------------|---------------------|---------------------|---------------------|
B|---------------------|---------------------|---------------------|---------------------|
G|---------------------|---------------------|---------------------|---------------------|
D|--------------3------|--------------3------|-----------------5---|--------------5------|
A|--------------3------|--------------1------|-----------------3---|--------------5------|
E|--------------3------|---------------------|---------------------|--------------5------|

e|---------------------|
B|---------------------|
G|---------------------|
D|-------------3-------|
A|-------------1-------|
E|---------------------|


Outro

e|----13-10-13-10----------------------|-------------------------------|
B|----------------13-10-13-10----10----|-------------------------------|
G|----------------------------12----12-|-10-12-10----10----10-12----10-|
D|-------------------------------------|----------12----12-------------|
A|-------------------------------------|-------------------------------|
E|-------------------------------------|-------------------------------|

e|--------------------------------|-----------------------------|
B|------------------15--------13--|-----------------------------|
G|---------------14---------------|-----------15----12--14------|
D|----0--14--15--------0--14------|----0--12----------------15--|
A|--------------------------------|-----------------------------|
E|--------------------------------|-----------------------------|

e|--------------------------------|-----------------------------|
B|------------------15--------13--|-----------------------------|
G|---------------14---------------|-----------15----12--14------|
D|----0--14--15--------0--14------|----0--12----------------15--|
A|--------------------------------|-----------------------------|
E|--------------------------------|-----------------------------|

e|--------------------------------|-----------------------------|
B|------------------15--------13--|-----------------------------|
G|---------------14---------------|-----------15----12--14------|
D|----0--14--15--------0--14------|----0--12----------------15--|
A|--------------------------------|-----------------------------|
E|--------------------------------|-----------------------------|

e|----------------------------------|-------------------------------|-------------------------------|
B|-------------------15-------------|----------------15-------------|----------------15-------------|
G|---------------14------14---------|------------14------14---------|------------14------14---------|
D|----0--14--15--------------15--0--|----14--15--------------15--0--|----14--15--------------15--0--|
A|----------------------------------|-------------------------------|-------------------------------|
E|----------------------------------|-------------------------------|-------------------------------|

e|-------------------------------|
B|----------------15-------------|
G|------------14------14---------|
D|----14--15--------------15--0--|
A|----------------------------0--|
E|----------------------------0--|
Comments