Iron Maiden - Prowler Chords & Tabs

 

Prowler Chords & Tabs

Iron Maiden Chords & Tabs

Version: 4 Type: Tab 0 ratings
1 star 2 stars 3 stars 4 stars 5 stars
comments

Prowler Tab

   
-----------------------------------------------------------------------
			  Prowler - Iron Maiden
-----------------------------------------------------------------------


Tabbed by: Silent_Scream1
Email: Ap0calyptica1@aol.com
Tuning: Standard(EADGBE)

Well i see U-G doesnt have a decent Prowler tab so here it is. Sry i couldnt get the solo.

Timing isnt perfect so listen to the song to to figure out the timing.

   Em      Rythm guitar Intro
e|-------|---------------------|--------------------------------------|
B|-------|---------------------|--------------------------------------|
G|-------|---------------------|--------------------------------------|
D|-2--2--|-2----2--2----2--2---|--2--2----2--2--2--2--2---------------|
A|-2--2--|-2----2--2----2--2---|--2--2----2--2--2--2--2---------------|
E|-------|---------------------|--------------------------------------|
           Lead guitar       Play top and bottom at same time^
e|----3----2--|--5---3--2----3----|-----------------|-----------------|2x
B|----0-------|-------------------|-----------------|-----------------|
G|----0-------|-------------------|----------------/|/----------------|
D|------------|-------------------|----------------/|/----------------|
A|------------|-------------------|-----------------|-----------------|
E|------------|-------------------|-----------------|-----------------|
                                     
e|----3----2--|--5---3--2---3--2--|-----------------|-----------------|
B|----3-------|-------------------|-----------------|-----------------|
G|----2-------|-------------------|-----------------|-----------------|
D|------------|-------------------|-----------------|-----------------|
A|------------|-------------------|-----------------|-----------------|
E|------------|-------------------|-----------------|-----------------|
                                     Trill ------------------->
e|----3----2--|--5---3--2----3----|-----------------|-----------------|
B|----0-------|-------------------|--5p3h5p3--------|-----------------|
G|----0-------|-------------------|----------------/|/----------------|
D|----2-------|-------------------|----------------/|/----------------|
A|------------|-------------------|-----------------|-----------------|
E|------------|-------------------|-----------------|-----------------|
      Walk    -      ing___     through   the   cit      -   y__
      See______      the___     la    -   dies  flash    -   ing
e|----3---------------2------|--5---------3----2-----------3--3--3----|
B|----0---------------0------|--0---------0----0-----------0--0--0----|
G|----0---------------0------|--0---------0----0-----------0--0--0----|(Verse I)
D|----2----------------------|----------------------------------------|
A|---------------------------|----------------------------------------|
E|---------------------------|----------------------------------------|
      Look    -   ing__      oh    so   pret - ty___}      
      All         their_   legs    and  lash - es___}       I've___ just_
e|----3---------------2----|--5-----3--2----3--3--3--|------3---------3----|
B|----0---------------0----|--0-----0--0----0--0--0--|------3---------3----|
G|----0---------------0----|--0-----0--0----0--0--0--|------2---------2----|
D|----2--------------------|-------------------------|------0---------0----|
A|-------------------------|-------------------------|---------------------|
E|-------------------------|-------------------------|---------------------|
     got to  find_   my     way._____

e|----5---3--2----2--2--2--|-------------------|-------------------|-------|
B|----3---3--3----3--3--3--|-------------------|--5-3-0-3---0------|-------|
G|----2---2--2----2--2--2--|-------------------|--------------2--0-|-------|
D|----0---0--0----0--0--0--|-------------------|-------------------|-------|
A|-------------------------|-------------------|-------------------|-------|
E|-------------------------|-------------------|-------------------|-------|
   (F)
  Well____   you see me  crawl - ing    through_ the    bush  -  es
e|--1--1--|--1----1--1----1--1----|--1--1----1--1---1--1--1-----------|
B|--1--1--|--1----1--1----1--1----|--1--1----1--1---1--1--1-----------|
G|--2--2--|--2----2--2----2--2----|--2--2----2--2---2--2--2-----------|
D|--3--3--|--3----3--3----3--3----|--3--3----3--3---3--3--3-----------|
A|--3--3--|--3----3--3----3--3----|--3--3----3--3---3--3--3-----------|
E|--------|-----------------------|-----------------------------------|
                 (E)                     (G)       (A)  (G)
    with  it o  -  pen   wide                       What you
e|--1--1----1--|--0~-------------------|--3---------0----3---------------|
B|--1--1----1--|--0~-------------------|--3---------2----3---------------|
G|--2--2----2--|--1~-------------------|--0---------2----0---------------|
D|--3--3----3--|--2~-------------------|--0---------2----0---------------|
A|--3--3----3--|--2~-------------------|--2---------0----2---------------|
E|-------------|-----------------------|--3--------------3---------------|
    see - ing   girl._______        (Rythm Fill)
e|--0--------0--0------------------|--10---8---7---8------------------|
B|--0--------0--0------------------|--10---8---7---8------------------|
G|--1--------1--1------------------|----------------------------------|
D|--2--------2--2------------------|----------------------------------|
A|--2--------2--2------------------|----------------------------------|
E|---------------------------------|----------------------------------|
      Got__  me__    feel - ing    my  -  self__  and__ reel - ing a - round
e|----0----0-0-0----|--0----0-0----0-0--|----2---2-2-2-|-2---2----2-2-2|
B|----1----1-1-1----|--1----1-1----1-1--|----3---3-3-3-|-3---3----3-3-3|
G|----0----0-0-0----|--0----0-0----0-0--|----2---2-2-2-|-2---2----2-2-2|(Verse II)
D|----2----2-2-2----|--2----2-2----2-2--|----0---0-0-0-|-0---0----0-0-0|
A|----3----3-3-3----|--3----3-3----3-3--|--------------|---------------|
E|------------------|-------------------|--------------|---------------|
[ Tab from: http://www.guitartabs.cc/tabs/i/iron_maiden/prowler_tab_ver_4.html ]
e|-------3~---2~---|-0~--------0~---|-----3~---2~---|-0~-------0~------|
B|-----------------|-----3~---------|-3-------------|-----3~-----------|
G|---0-------------|----------------|-2-------------|------------------|
D|---2-------------|----------------|-0-------------|------------------|
A|---3-------------|----------------|---------------|------------------|
E|-----------------|----------------|---------------|------------------|


e|-----------------|----------------|---------------|------------------|
B|-----------------|----------------|---------------|------------------|
G|-----------------|----------------|---------------|------------------|
D|-----------------|----------------|---------------|------------------|
A|-----------------|----------------|---------------|------------------|
E|-----------------|----------------|---------------|------------------|
      (C)                               (D)
e|-----0----0-0-0--|-0----0-0----0--|----2----2-2-2--|-2----2-2---2---2|
B|-----1----1-1-1--|-1----1-1----1--|----3----3-3-3--|-3----3-3---3---3|
G|-----0----0-0-0--|-0----0-0----0--|----2----2-2-2--|-2----2-2---2---2|
D|-----2----2-2-2--|-2----2-2----2--|----0----0-0-0--|-0----0-0---0---0|
A|-----3----3-3-3--|-3----3-3----3--|----------------|-----------------|
E|-----------------|----------------|----------------|-----------------|

e|--0~-------------||--7-7-7--5--3----2--3--5--|------------------------|2x
B|--0~-------------||--8-8-8--7--5----3--5--7--|------------------------|
G|--0~-------------||--------------------------|------------------------|
D|--2~-------------||--------------------------|------------------------|
A|--2~-------------||--------------------------|------------------------|
E|-----------------||--------------------------|------------------------|

e|----||------3--2--0--------0--2-|-----3--2--0--------0--2-|-----3--2--0-------2|
B|----||------------------3-------|-----------------3-------|----------------3---|
G|----||--------------------------|-------------------------|--------------------|
D|----||--------------------------|-------------------------|--------------------|
A|----||--------------------------|-------------------------|--------------------|
E|----||--0-----------------------|--2----------------------|--0-----------------|
e|----||-------------------------------------------------------------------------|

B|--------3---2---0--------0---2--||-------------------------------------|
G|---------------------3----------||-------------------------------------|
D|--------------------------------||-------------------------------------|
A|--------------------------------||-------------------------------------|
E|----0---------------------------||-------------------------------------|
          Play 2x
e|----||------0-----0-----0-------|--2-0-3--2-0-3--2-0-3-2-0-------------|
B|----||--3-0---3-0---3-0---3-0---|--------------------------------------|
G|----||--------------------------|--------------------------------------|
D|----||--------------------------|--------------------------------------|
A|----||--------------------------|--------------------------------------|
E|----||--------------------------|--------------------------------------|
                                    (Em)
e|------------0-----0-----0-------||-0--0--0--0--|-0----0-0---0--0--0--0-|
B|--------3-0---3-0---3-0---3-0---||-0--0--0--0--|-0----0-0---0--0--0--0-|
G|--------------------------------||-0--0--0--0--|-0----0-0---0--0--0--0-|
D|--------------------------------||-2--2--2--2--|-2----2-2---2--2--2--2-|
A|--------------------------------||-2--2--2--2--|-2----2-2---2--2--2--2-|
E|--------------------------------||-------------|-----------------------|
   (D)                                      (B)                      (C)     (D)
e|--2--2--2--2--|--2---2--2-2--2--2--2---2-|-2--2--2-2--2--2--2---2-|-0---0-0-2---|
B|--3--3--3--3--|--3---3--3-3--3--3--3---3-|-4--4--4-4--4--4--4---4-|-1---1-1-3---|
G|--2--2--2--2--|--2---2--2-2--2--2--2---2-|-4--4--4-4--4--4--4---4-|-0---0-0-2---|
D|--0--0--0--0--|--0---0--0-0--0--0--0---0-|-4--4--4-4--4--4--4---4-|-2---2-2-0---|
A|--------------|--------------------------|-2--2--2-2--2--2--2---2-|-3---3-3-----|
E|--------------|--------------------------|-2--2--2-2--2--2--2---2-|-------------|
 Once again listen to the song for for strumming pattern
(Em)                                    (D)
Got_____  me__   feel  -  ing___    my  -  self_____  and___

                       (C)
reel  -  ing____  a___     Got____  me__   talk  -  ing__   but

(B)              (C)       (D)      (Em)
noth  -  ing's_   with    me_        Got_____  me__

                  (D)
feel  -  ing_    my   -  self___ and_  reel  -  ing_____  a - round.__
                                                                    
e|-------3~---2~---|-0~--------0~---|-----3~---2~---|-0~-------0~------|
B|-----------------|-----3~---------|-3-------------|-----3~-----------|
G|---0-------------|----------------|-2-------------|------------------|
D|---2-------------|----------------|-0-------------|------------------|
A|---3-------------|----------------|---------------|------------------|
E|-----------------|----------------|---------------|------------------|

 Strum Em minor for about 4 measures before playing bottom riff and listen for strum pattern

e|-------3~---2~---|-0~--------0~---|-----3~---2~---|-0~-------0~------|
B|-----------------|-----3~---------|-3-------------|-----3~-----------|
G|---0-------------|----------------|-2-------------|------------------|
D|---2-------------|----------------|-0-------------|------------------|
A|---3-------------|----------------|---------------|------------------|
E|-----------------|----------------|---------------|------------------|

  Last chord will be (Em)
e|-----0-----------|
B|-----0-----------|
G|-----0-----------|
D|-----2-----------|
A|-----2-----------|
E|-----------------|



| /  slide up
| \  slide down
| h  hammer-on
| p  pull-off
| ~  vibrato
| +  harmonic
| x  Mute note
===============================================================================
Comments