Iron Maiden - Prisoner Chords & Tabs

 

Prisoner Chords & Tabs

Iron Maiden Chords & Tabs

Version: 1 Type: Bass Tab 0 ratings
1 star 2 stars 3 stars 4 stars 5 stars
comments

Prisoner Bass Tab

Song Name: The Prisoner
Albume: Number Of The Beast
Artist: Iron Maiden

:|
:| = Repeat

Intro:
                                                    1     2
G/-------------------------------------------------|-----|-----|
D/------------------------0------------------------|----:|----:|
A/-2-2-2-0-2---2-2-2-0-2---------------------------|-0--:|----:|
E/----------------------------5-5-5-3-5---2-2-2-0-2|---0-|-3-5-|

Verse:
                             1                       2
G/--------------------------|-----------------------|-----|
D/--------------------------|----------------------:|-----|
A/--2-2-2-2-2-2-2-2-2-0-----|--2-2-2-2-2-2-2--5-4-0:|-0---|
E/----------------------33-0|-----------------------|---0-|


Pre chorus 1:

G/-----------------------------|
D/-------------5-7-7-7-7-7-5---|
A/-0-0-0-0-0-7---------------7-|
E/-----------------------------|

Ptr chorus 2:
[ Tab from: http://www.guitartabs.cc/tabs/i/iron_maiden/prisoner_btab.html ]
G/--9-9-9-9-9-9-9-7-7-10-10-10-9-7-|
D/---------------------------------|
A/---------------------------------|
E/---------------------------------|


Pre chorus 3:

G/-----------------|
D/-----------------|
A/--2------------2-|
E/------2----2-0---|



Chorus

G/-------9-------------9-------------9----|------|------|
D/-----9---9---------9---9---------9---9--|------|------|
A/---7-------7----7--------7---0-7------7-|------|------|
E/-0------------7-------------------------|-9--7-|-9-10-|




Solo part:
-Much Faster
                                                              1    2
G/-----------------------------------------------------------|-----|------|
D/--------------------------0-0-0-0--------------------------|----:|-----:|
A/-2-2-2-2-2-2-2-2-2-2-2-2-----------0-0-0-0-0-0-0-0---------|0---:|-----:|
E/---------------------------------------------------2-2-2-2-|--0--|-3-5--|


Listen to the song to get the strum right, specialy in the Solo Part.

Thats all folks
Up the Iron's!
Comments