Iron Maiden - Paschendale Chords & Tabs

 

Paschendale Chords & Tabs

Iron Maiden Chords & Tabs

Version: 4 Type: Tab 0 ratings
1 star 2 stars 3 stars 4 stars 5 stars
comments

Paschendale Tab

   
Paschendale (solos)
                 (Murray,Smith,Gers)


                              (Murray)
w/dist. neck pick up
e-------------------12----14b(15)r14-12-14-12h14p12----12--------12------|
B---15b(17)-15b(17)----12---------------------------15----15b(17)-15p12-|
G------------------------------------------------------------------------|
D------------------------------------------------------------------------|
A------------------------------------------------------------------------|
E------------------------------------------------------------------------|

e----------------------15b(17)-15-14-12-14-12h14p12----12--------12------|
B----------12-------12------------------------------15----15b(17)-12-15-|
G---14b(16)---15p14------------------------------------------------------|
D------------------------------------------------------------------------|
A------------------------------------------------------------------------|
E------------------------------------------------------------------------|

e------------------------------------14-15----14h15p14----------15-14h15-|
B----------12------------------15-17-------17----------17-15s12----------|
G---14b(16)---15-14p12h14-(14)\------------------------------------------|
D------------------------------------------------------------------------|
A------------------------------------------------------------------------|
E------------------------------------------------------------------------|
                                                           w/bar
e---p14----14----------15-14h15-14-------12-14p12h14p12----------15b(17)-|
B-------17----17-15s12-------------17-15----------------15-(15)\---------|
G------------------------------------------------------------------------|
D------------------------------------------------------------------------|
A------------------------------------------------------------------------|
E------------------------------------------------------------------------|

e---15-14-12-14-12h14p12----12---------12-------------------------|
B------------------------15----15b(17)----15p14p12----12-14p13p12-|
G--------------------------------------------------15-------------|
D-----------------------------------------------------------------|
A-----------------------------------------------------------------|
E-----------------------------------------------------------------|

e---------------------------------------------------------|
B---------------------------------------------------------|
G---15p14p12-14b(16)r14p12-14b(16)r14p12-14-14~---(14)~~\-|
D---------------------------------------------------------|
A---------------------------------------------------------|
E---------------------------------------------------------| End of solo 1




                            (Smith)

e---8b(9)r8-9-9-9-11-12-11p9-9-----------9------------------------9-----|
B----------------------------12-12p9--------12p9------------9-12p9---12p9-|
G-----------------------------------11b(13)-----11b(12)-11p9------12------|
D-------------------------------------------------------------------------|
A-------------------------------------------------------------------------|
E-------------------------------------------------------------------------|
                            P.H   P.H   P.H   P.H      P.H
e------------9--------------------------------------------0-2-0h2-0------|
B----------9---12p9------------------------------------------------4-0-4-|
G---11b(13)--------11p9------8~----8~----8~----8~--9-11-8~------------1--|
D------------------------------9-x---9-x---9-x---------------------------|
A-----------------------11~~---------------------------------------------|
E------------------------------------------------------------------------|
[ Tab from: http://www.guitartabs.cc/tabs/i/iron_maiden/paschendale_tab_ver_4.html ]
e---------------------------------------------------------9---11---12-12-|
B-------------------------------------------------------9---9----9-------|
G-----------11-13-14--------11-13-14--------11-13-(13)\------------------|
D---11-13-14--------11-13-14--------11-13-14-----------------------------|
A------------------------------------------------------------------------|
E------------------------------------------------------------------------|

e---11b(12)r11----------------14-16-17h16p14---14----------------14------|
B-------------10-10---14h16h17--------------17----17p16-14-16-17---17p16-|
G------------------------------------------------------------------------|
D------------------------------------------------------------------------|
A------------------------------------------------------------------------|
E------------------------------------------------------------------------|

e----------------------------------------------------14-16-17---------|
B---p14-17-16p14---16p14-----14h16-----------14-16-17--------14h16h17-|
G---------------16------16p14--------13h14h16-------------------------|
D----------------------------------16---------------------------------|
A---------------------------------------------------------------------|
E---------------------------------------------------------------------|

e---14-16-17-17---17b(19)~~~~-|
B-----------------------------|
G-----------------------------|
D-----------------------------|
A-----------------------------|
E-----------------------------| End of solo 2

Bridge       then after bridge: solo 3:

                             (Gers)
             w/bar   P.H
e-----------------------------------------------------------------------|
B--------------------------------------------------13b(15)r13p10---10---|
G---12b(14)---10-----12b(14)-12b(14)r12p10----------------------13---13-|
D-----------------------------------------12-10-------------------------|
A-----------------------------------------------------------------------|
E-----------------------------------------------10----------------------|


e--------------------------------13b(15)-13-12-10-10---------------------|
B---10h12p10---10------------x-x--------------------13-12-10-12-13-13-13-|
G-----------13----13----10-----------------------------------------------|
D--------------------12----0---------------------------------------------|
A------------------------------------------------------------------------|
E------------------------------------------------------------------------|

e--------------------------------------------------13b(15)-13-12-10-10---|
B-------------------------------------13b(15)r13-------------------10--10-|
G--------7h8p7----------10h12p10---10-----------12------------------------|
D-------------10-9-10-12--------12----------------------------------------|
A---15\-------------------------------------------------------------------|
E-------------------------------------------------------------------------|

e--------------------------------------------------------------------|
B---13b(15)r13-10----10----10-10----10----10-13p10----10-15p10----10-|
G-----------------13----13-------13----13----------13----------13----|
D--------------------------------------------------------------------|
A--------------------------------------------------------------------|
E--------------------------------------------------------------------|

e------------------------------12-13-15p13--------------------13p12-13p12-|
B---13p10----10-15p10----10-13-------------15p13--------------------------|
G---------12----------12-------------------------------12b(14)------------|
D------------------------------------------------15-----------------------|
A---------------------------------------------------12--------------------|
E-------------------------------------------------------------------------|

e-----12--12-15p13p12-12-------------------------------------------------|
B---13--13-----------13-13-13p10-10-------------------------------------|
G--------------------------------13-13-12p10-10-------------------------|
D--------------------------------------------12-12-10--------------------|
A-----------------------------------------------------12-11-10-8----8-----|
E----------------------------------------------------------------10---10\-|

The End   By:Arttu Ronkainen (Finland)
Comments