Iron Maiden - Paschendale Chords & Tabs

 

Paschendale Chords & Tabs

Iron Maiden Chords & Tabs

Version: 3 Type: Tab 0 ratings
1 star 2 stars 3 stars 4 stars 5 stars
comments

Paschendale Tab

Song Paschendale
Band Iron Maiden
Album Dance Of Death

Intro
--0-10-12-0-8-12-0-7-12-0-8-12-0-10-12-0-8-12-0-7-12-0-8-12-0-12--|
------------------------------------------------------------------|
------------------------------------------------------------------|
------------------------------------------------------------------|
------------------------------------------------------------------|
------------------------------------------------------------------|

------------------------------------------|
------------------------------------------|
--9-9--7-7--5-5--4-4--5-5--4-4--2-2-------|
--9-9--7-7--5-5--4-4--5-5--4-4--2-2--2-2--|
--7-7--5-5--3-3--2-2--3-3--2-2--0-0--2-2--|
-------------------------------------0-0--|

Verse
-------------------------------------------------------------|
-------------------------------------------------------------|
--9-9-9--7-7-7--9-9---9-9-9--5-5-5--7-7---9-9-9--7-7-7--9-9--|
--9-9-9--7-7-7--9-9---9-9-9--5-5-5--7-7---9-9-9--7-7-7--9-9--|
--7-7-7--5-5-5--7-7---7-7-7--3-3-3--5-5---7-7-7--5-5-5--7-7--|
-------------------------------------------------------------|

------------------------|
------------------------|
--12-12-12--5-5-5--7-7--|
--12-12-12--5-5-5--7-7--|
--10-10-10--3-3-3--5-5--|
------------------------|

Pre Chorus
---------------------------------------------|
---------------------------------------------|
------5--2---------5------5--2---------5-----|
--2---5--2--2---2--5--2---5--2--2---2--5--2--|
--2---3--0--2---2--3--2---3--0--2---2--3--2--|
--0---------0---0-----0---------0---0-----0--|

------------------------------------------|
------------------------------------------|
--9-9--7-7--5-5--4-4--5-5--4-4--2-2-------|
--9-9--7-7--5-5--4-4--5-5--4-4--2-2--2-2--|
--7-7--5-5--3-3--2-2--3-3--2-2--0-0--2-2--|
-------------------------------------0-0--|

Chorus
-----------------------------------|
-----------------------------------|
--9--12--7---5--7--9---12--5--7-7--|
--9--12--7---5--7--9---12--5--7-7--|
--7--10--5---3--5--7---10--3--5-5--|
-----------------------------------|

Verse 2
--------------|
--------------|
--2--4--5--7--|
--2--4--5--7--|
--0--2--3--5--|
--------------|

Pre Chorus
------------------------------------------|
------------------------------------------|
--9-9--7-7--5-5--4-4--5-5--4-4--2-2-------|
--9-9--7-7--5-5--4-4--5-5--4-4--2-2--2-2--|
--7-7--5-5--3-3--2-2--3-3--2-2--0-0--2-2--|
-------------------------------------0-0--|
[ Tab from: http://www.guitartabs.cc/tabs/i/iron_maiden/paschendale_tab_ver_3.html ]
Bridge
-------------------------------------------------|
-----7-8----------7-10-7---8-10-12--8-10-7-8-----|
--9-------9----9---------------------------------|
----------------------------------------------9--|
-------------------------------------------------|
-------------------------------------------------|

------------------------------------------------|
------------------------------------------------|
------------------------------------------------|
------------------------------------------------|
--5-5--7--10---9--10-10--7--10--9--10--9--7--5--|
--3-3--5---8---7--8---8--5---8--7---8--7--5--3--|

-----------------|
-----------------|
-----------------|
--------------7--|
-10--9--7-7---5--|
--8--7--5-5------|

Verse 3
-------------------------------------------------------------------|
-------------------------------------------------------------------|
--9-9-9--5-5-5 --7-7----7-7-7--4-4-4 --5-5------5--2---------5-----|
--9-9-9--5-5-5 --7-7----7-7-7--4-4-4 --5-5---2--5--2--2---2--5--2--|
--7-7-7--3-3-3 --5-5----5-5-5--2-2-2 --3-3---2--3--0--2---2--3--2--|
---------------------------------------------0--------0---0-----0--|

---------------------------------------------|
---------------------------------------------|
------5--2---------5------5--2---------5-----|
--2---5--2--2---2--5--2---5--2--2---2--5--2--|
--2---3--0--2---2--3--2---3--0--2---2--3--2--|
--0---------0---0-----0---------0---0-----0--|

Rythm for solo 1
----------------------------------|
----------------------------------|
-------------7-7-------------7-7--|
--9-9-9-9----5-5---7-7-7-7---5-5--|
--7-7-7-7----------5-5-5-5--------|
----------------------------------|

After the solos
------------------------------------------|
------------------------------------------|
--9-9--7-7--5-5--4-4--5-5--4-4--2-2-------|
--9-9--7-7--5-5--4-4--5-5--4-4--2-2--2-2--|
--7-7--5-5--3-3--2-2--3-3--2-2--0-0--2-2--|
-------------------------------------0-0--|

Chorus
-----------------------------------|
-----------------------------------|
--9--12--7---5--7--9---12--5--7-7--|
--9--12--7---5--7--9---12--5--7-7--|
--7--10--5---3--5--7---10--3--5-5--|
-----------------------------------|

After chorus
---------------------------------------------|
---------------------------------------------|
------5--2---------5------5--2---------5-----|
--2---5--2--2---2--5--2---5--2--2---2--5--2--|
--2---3--0--2---2--3--2---3--0--2---2--3--2--|
--0---------0---0-----0---------0---0-----0--|

--0-10-12-0-8-12-0-7-12-0-8-12-0-10-12-0-8-12-0-7-12-0-8-12-0-12--|
------------------------------------------------------------------|
------------------------------------------------------------------|
------------------------------------------------------------------|
------------------------------------------------------------------|
------------------------------------------------------------------|
Comments