Iron Maiden - Out Of The Silent Planet Chords & Tabs

 

Out Of The Silent Planet Chords & Tabs

Iron Maiden Chords & Tabs

Version: 1 Type: Bass Tab 0 ratings
1 star 2 stars 3 stars 4 stars 5 stars
comments

Out Of The Silent Planet Bass Tab

   
Iron Maiden
Out of the Silent Planet
Tabbed by Dan (argybahji@hotmail.com)

[Intro]
G|---------------------------------------------------------------
D|---------------------------------------------------------------
A|-----------------------------------------------------------3--0
E|-0-------5-3-----0-------5-3-----0-------5-3-----0-------5-----

G|---------------------------------------------------------------
D|---------------------------------------------------------------
A|-------3-333-------5-555-------3-333-------5-555---------------
E|-0-000-------3-333-------0-000-------3-333--------------------- 

G|---------------------------------------------------------------
D|---------------------------------------------------------------
A|-------3-333-------5-555-------3-333-------5-555---------------
E|-0-000-------3-333-------0-000-------3-333--------------------- 

G|---------------------------------------------------------------
D|---------------------------------------------------------------
A|---------------------------------------------------------------
E|-00000-00000-00000-00000-00000-00000-00000-00000--------------- 


[Verse] ('Withered hands, withered bodies...')
G|---------------------------------------------------------------
D|---------------------------------------------------------------
A|--------------------------------3-3-3-3-3-3-3-3-5-5-5-5-5------
E|0-0-0-0-0-0-0-0-0-0-0-0-0-0-0-0---------------------------0-3-2

G|---------------------------------------------------------------
D|---------------------------------------------------------------
A|--------------------------------3-3-3-3-3-3-3-3-0-0-0-0-0------
E|0-0-0-0-0-0-0-0-0-0-0-0-0-0-0-0---------------------------0-3-2

G|---------------------------------------------------------------
D|---------------------------------------------------------------
A|--------------------------------3-3-3-3-3-3-3-3-5-5-5-5-5------
E|0-0-0-0-0-0-0-0-0-0-0-0-0-0-0-0---------------------------0-3-2
[ Tab from: http://www.guitartabs.cc/tabs/i/iron_maiden/out_of_the_silent_planet_btab.html ]
G|---------------------------------------------------------------
D|---------------------------------------------------------------
A|--------------------------------3-3-3-3-3-3-3-3-5-5-5-5-5-5-5-5
E|0-0-0-0-0-0-0-0-0-0-0-0-0-0-0-0--------------------------------

G|---------------------------------------------------------------
D|---------------------------------------------------------------
A|0-0-0-0-0-0-0-0-3-3-3-3-3-3-3-3--------------------------------
E|--------------------------------0-0-0-0-0-0-0-0-0-0-0-0-0-0-0-0

G|---------------------------------------------------------------
D|---------------------------------------------------------------
A|0-0-0-0-0-0-0-0-3-3-3-3-3-3-3-3-5-5-5-5-5-5-5-5-5-5-5-5-5-5-5-5
E|---------------------------------------------------------------


[Chorus] ('Out of the silent planet...')
G|---------------------------------------------------------------
D|---------------------------------------------------------------
A|----------------3-3-3-3-3-3-3-3-----------------5-5-5-5-5-5-5-5
E|0-0-0-0-0-0-0-0-----------------3-3-3-3-3-3-3-3----------------

[Interlude]
G|---------------------------------------------------------------
D|---------------------------------------------------------------
A|---------------------------------------------------------------
E|0-0-0-0-0-0-0-0-0-0-0-0-0-0-0-0-0-0-0-0-0-0-0-0-0-0-0-0-0-0-0-0   x1

G|---------------------------------------------------------------
D|---------------------------------------------------------------
A|3-3-3-3-3-3-3-3-5-5-5-5-5-5-5-5--------------------------------
E|--------------------------------0-0-0-0-0-0-0-0-0-0-0-0-0-0-0-0   x8

G|---------------------------------------------------------------
D|---------------------------------------------------------------
A|3-3-3-3-3-3-3-3-5-5-5-5-5-5-5-5-2-2-2-2-2-2-2-2-3-3-3-3-5-5-5-5  
E|---------------------------------------------------------------   x1


Structure:
==================
Intro		x1
Verse		x1
Chorus		x4
Verse		x1
Chorus		x8
Interlude	x1
Chorus		x12
Comments