Iron Maiden - Number Of The Beast Chords & Tabs

 

Number Of The Beast Chords & Tabs

Iron Maiden Chords & Tabs

Version: 3 Type: Bass Tab 0 ratings
1 star 2 stars 3 stars 4 stars 5 stars
comments

Number Of The Beast Bass Tab

 {= let ring
intro  
  bass kicks in when the voice says,"just what I saw"
g------------------------------------------------------
d---7---7---7---7---7------4---5---7---7---7---7---7---
a----55--55--55--55-----55---5---5--55--55--55--55-----
e------------------------------------------------------

g----------------------------------------------------------------
d-------2---3---5---5---5---5---5-----4---5---7---7---7---7---7--
a----33---3---3--33--33--33--33----55---5---5--55--55--55--55----
e----------------------------------------------------------------

bridge
g---------------------------------------------------
d---------------------------------------------------
a---5555--5{---5555--5{-----3333--3{-----5555--5{---
e---------------------------------------------------

verse
g-------------------]  [-------------------
d-------------------]  [-------------------
a--5-55555-555-5-5--]X3[--3--33333-5-555---
e-------------------]  [-------------------

g-------------------]  [-------------------
d-------------------]  [-------------------
a--5-55555-555-5-5--]X3[--3--33333-5-555---
e-------------------]  [-------------------

chorus (six...)
g--------------------------------------7-----------------------------------
d-----------------------------------5-7-7----------------------------------
a--3-3-3333--2-22-22-2-3-33-333-5--5------5--3-33-333-2-22-22-2-3-33-333-5-
e--------------------------------------------------------------------------

verse
g-------------------]  [-------------------
d-------------------]  [-------------------
a--5-55555-555-5-5--]X3[--3--33333-5-555---
e-------------------]  [-------------------

g-------------------]  [-------------------
d-------------------]  [-------------------
a--5-55555-555-5-5--]X3[--3--33333-5-555---
e-------------------]  [-------------------

chorus (six...)
g--------------------------------------7-----------------------------------
d-----------------------------------5-7-7----------------------------------
a--3-3-3333--2-22-22-2-3-33-333-5--5------5--3-33-333-2-22-22-2-3-33-333-5-
e--------------------------------------------------------------------------

bridge before guitar solo
g-----------------------------------------------------------------
d-----7---7------9---9------(10)---(10)------(10)---(10)---(10)---
a--55---5---5-77---7---7-88------8---------8------8------8--------X4
e-----------------------------------------------------------------

 during the first guitar solo
g------------------------------------------
d------------------------------------------
a--1-11111111111111------------------------X4
e-----------------------1-11111111111111---
[ Tab from: http://www.guitartabs.cc/tabs/i/iron_maiden/number_of_the_beast_btab_ver_3.html ]
between first and second guitar solo
g------------------------------------------
d------(12)----(10)---8---7---5------------
a--(12)----(10)-----8---7---5---5---3333---
e------------------------------------------

g-------------------------------------------------------------------------
d------(10)---8---7---5----3----------------------------------------------
a--(10)-----8---7---5---5----3---000--8-88-888-(10)-(10)(10)-(10)(10)(10)-
e-------------------------------------------------------------------------

g------------------
d---8-88-88-(10)---
a------------------
e------------------

during second solo
g---------------------------------------------------------
d--------12-------8---8-------------(10)----(10)----------
a--9-999---99--88---8---88--(10)(10)----(10)----(10)(10)--
e---------------------------------------------------------

g-----(10)---------(12)------------
d---8------8--(10)------(10)-------
a----------------------------------X4
e----------------------------------

bridge after solo
g----------------------------------------------------------------
d-(12)-(12)(12)(12)(12)--(10)------------------------------------
a-----------------------------(12)--8-88-888-(10)-(10)(10)-(10)--
e----------------------------------------------------------------

g------------------------------------------------
d---------8------8--(10)--(10)(10)-(10)(10)(10)--
a--8-(10)---(10)---------------------------------X2
e------------------------------------------------

verse
g-------------------]  [-------------------
d-------------------]  [-------------------
a--5-55555-555-5-5--]X3[--3--33333-5-555---
e-------------------]  [-------------------

g-------------------]  [-------------------
d-------------------]  [-------------------
a--5-55555-555-5-5--]X3[--3--33333-5-555---
e-------------------]  [-------------------

chorus (six...)
g--------------------------------------7-----------------------------------
d-----------------------------------5-7-7----------------------------------
a--3-3-3333--2-22-22-2-3-33-333-5--5------5--3-33-333-2-22-22-2-3-33-333-5-
e--------------------------------------------------------------------------

outro
g-----------------------------------------------------------------------
d-------4---5---7---7---7---7---7------4---5---7---7---7---7---7--------
a----55---5---5--55--55--55--55-----55---5---5--55--55--55--55-----55---
e-----------------------------------------------------------------------

g----------------------------------------------------------------
d-------2---3---5---5---5---5---5-----4---5---7---7---7---7---7--
a----33---3---3--33--33--33--33----55---5---5--55--55--55--55----X2
e----------------------------------------------------------------

g------------------------------------------------------
d------------------------------------------------------
a--5555-5{-----5555-5{-------3333-3{------5555-5-3-5---
e------------------------------------------------------

there, enjoy
Comments