Iron Maiden - No More Lies Chords & Tabs

 

No More Lies Chords & Tabs

Iron Maiden Chords & Tabs

Version: 8 Type: Tab 0 ratings
1 star 2 stars 3 stars 4 stars 5 stars
comments

No More Lies Tab

   
Band: Iron Maiden
Song: No More Lies
shortsleeves@hotmail.com

Intro 
Section A
E---121012---12101212---12101212-101213-15-13-12-|
B--10------10---------10-------------------------|
G------------------------------------------------|
D------------------------------------------------|
A------------------------------------------------|
E------------------------------------------------|
|
E------------------------------------------------|
B---------------------------------------8--------|
G---9-7-9----9-7-9-9----9-7-9-9--7-9-10----10-9--|
D--7-------7----------7--------------------------|
A------------------------------------------------|
E------------------------------------------------|
|                                                |
G------------------------------------------------|
D---------------------------------------5--------|
A---7-5-7----7-5-7-7----7-5-7-7--5-7-8------8-7--|
E--5-------5----------5--------------------------|

E--1012108-8---7-8--7-8--8---7-8--7---------------10-|
B-----------------------------------1010-8-10810-8---|
G----------------------------------------------------|
D----------------------------------------------------|
A----------------------------------------------------|
E----------------------------------------------------|
|                                                    |
E----------------------------------------------------|
B----------------------------------------------------|
G--7-9-7-5-5---4-5--4-5--5---4-5--4---------------7--|
D-----------------------------------7-7--5-7-5-7-5---|
A----------------------------------------------------|
E----------------------------------------------------|
|                                                    |
G----------------------------------------------------|
D----------------------------------------------------|
A--5-7-5-3-3---2-3--2-3--3---2-3--2---------------5--|
E-----------------------------------5-5--3-5-3-5-3---|
Section B
E-----------------------------------|
B-----------------------------------|
G---9-9-9-9-7-9---9-9-9-9-10-9-7-9--|
D--7-------------7------------------|
A-----------------------------------|
E-----------------------------------|
|
E-----------------------------------|
B-----------------------------------|
G-----------------------------------|
Dó----------------------------------|
A---7--7--7--7--7--7--7--7--7--7----|
E--5--5--5--5--5--5--5--5--5--5-----|
|
G-----------------------------------|
Dó----------------------------------|
A---7--7--7--7--7--7--7--7--7--7----|
E--5--5--5--5--5--5--5--5--5--5-----|










E-----------------------------------|
B-----------------------------------|
G---9-9-9-9-7-9---9-9-9-9-10-9-10-9-|
D--7-------------7------------------|
A-----------------------------------|
E-----------------------------------|
|
E-----------------------------------|
B-----------------------------------|
G-----------------------------------|
Dó----------------------------------|
A---3--3--3--3--3--3--3--3--5--5----|
E--1--1--1--1--1--1--3--3--3--3-----|
|
G-----------------------------------|
Dó----------------------------------|
A---3--3--3--3--3--3--3--3--5--5----|
E--1--1--1--1--1--1--3--3--3--3-----|
Section C
Play this over Section B minus Guitar 1's line
E--5-7-8--5-7-8--5-7-8--10-8-7-8-7---|
B------------------------------------|
G------------------------------------|
D------------------------------------|
A------------------------------------|
E------------------------------------|
-END INTRO-

Verse 1
E-----------------------------------------------------------|
B-----------------------------------------------------------|
G-----------------------------------------------------------|
D-----------------------------------------------------------|
A----7---7----7-----3---3---3-----3---3---3-----5---5---5---|
E--5---5---5----5-1---1---1---1-3---3---3---3-3---3---3---3-|
Pre Chorus 1
E-------------------------------------------|
B-------------------------------------------|
G-------------------------------------------|
D-------------------------------------------|
A----7---7-----3---3-----3---3-----5---5----|
E--5---5---5-1---1---1-3---3---3-3---3---3--|
Chorus
E---------------------------|-----|-----|-----|-----|
B---------------------------|-----|-----|-----|-----|
Go--x5-x5-x5-x5-x5-x5-x5-x5o|o---o|o---o|o---o|o---o|
Do-7-----3-----5-----5-----o|o--7o|o--3o|o--5o|o--5o|
A--7-----3-----5-----5------|---7-|---3-|---5-|---5-|
E--5-----1-----5-----3------|-555-|-111-|-555-|-333-|-
Verse 2
E------------------------|
B------------------------|
G----x4----x4----x4----x4|
D---7-----3-----5-----5--|
A---7-----3-----5-----5--|
E-555---111---555---333--|
Pre Chorus
E------------|-------------|
B------------|-------------|
G------------|-------------|
D--7---7---7-|--3---5---5--|
A--7---7---7-|--3---5---5--|
E--5-555-555-|--1---5---3--|
Each chord that pattern

Play: Chorus





Faster more powerful intro
upper Harmony Guitar + Bass play
For Section A 
Riff 1
E----------------------|
B----------------------|
G-----x8-----x4-----x4-|
D----7------3------5---|
A----7------3------5---|
E-55-5---11-1---33-3---|
For Sections B and C
Riff 2
E-------------------------|--------------------|
B-------------------------|--------------------|
G-----x4-----x2-----------|-----x4-----x2----x2|
D----7------3-----5-----5-|----7------3-----5--|
A----7------3-----5-----5-|----7------3-----5--|
E-55-5---11-1--55-5--33-3-|-55-5---11-1--33-3--|

Solo Rhythms: Riff 2
Murray's Solo - use neck pickup
--------------------------------|
--------------------------------|
--7b-9-9-9-9-9-9-9-9-9-9--------|
--------------------------------|
--------------------------------|
--------------------------------|

--------12-15-12----12h15h12----12h15h12-----12h15h12----|
-----13----------15b---------15b---------15b----------15-|
--14-----------------------------------------------------|
---------------------------------------------------------|
---------------------------------------------------------|
---------------------------------------------------------|

-----12h17h12------------------------------------------------|
--13----------13-12h13h12----12h13h12------------------------|
--------------------------14----------14r--14h12-14-12-------|
-------------------------------------------------------14-12-|
-------------------------------------------------------------|
-------------------------------------------------------------|
[ Tab from: http://www.guitartabs.cc/tabs/i/iron_maiden/no_more_lies_tab_ver_8.html ]
----------------------------------12-15b---15b---|
--12h15h12h15------------------13----------------|
--------------12h14h12h14/7/14-------------------|
-------------------------------------------------|
-------------------------------------------------|
-------------------------------------------------|

----------17--20-19h20h19-17-19~-------|--20--19--17------------------------|
------17-------------------------------|--------------20--18--17------------|
--17-----------------------------------|--------------------------19~-------|
---------------------------------------|------------------------------------|
---------------------------------------|------------------------------------|
---------------------------------------|------------------------------------|

--------17----------------------------------|
-----17----17----------------------17h20h17-|
--19----------19r--17h19-------19b----------|
--------------------------------------------|
--------------------------------------------|
--------------------------------------------|

---------------------------17h20h17----------------|
-----17h20h17-----17h20h17----------17-20b---20b---|
--19b---------19b----------------------------------|
---------------------------------------------------|
---------------------------------------------------|
---------------------------------------------------|


Smith's Solo - Bridge pickup
-------------------------------|---------------------------------------|
-------------------------------|----------------------8---------8-10---|
-------------------------------|--7---------9------7-----9--10---------|
--7--------7--9--10--7--9--10--|-----9--10-----10----------------------|
-------------------------------|---------------------------------------|
-------------------------------|---------------------------------------|

-------5h8h5-----------5----------------|----------------------------------|
----8b-------5h8h5---5---8h5------------|-----------------8----------------|
-------------------7b--------7h5---5h7--|------7-9-10-9-7---9-10-----------|
---------------------------------7------|----7-------------------10-9-10---|
----------------------------------------|----------------------------------|
----------------------------------------|----------------------------------|

--12h17h12----------12h17h12----------12h17h12----------12h17h12-------|
-----------13----13----------13----13----------13----13----------------|
--------------14----------------14----------------14-------------14-14-|
-----------------------------------------------------------------------|
-----------------------------------------------------------------------|
-----------------------------------------------------------------------|

-------------------------------------|
-------------------------------------|
------14-12-10----12----10----9------|
---------------14----14----12--------|
--------------------------------12---|
-------------------------------------|

--------------------------------12-------12-13----|
-----12-13----12-13-15-12-13-15----13-15-------15-|
--14-------14-------------------------------------|
--------------------------------------------------|
--------------------------------------------------|
--------------------------------------------------|

--------------------------17------17--19b---|
--17--18--20--17--18--20------20------------|
--------------------------------------------|
--------------------------------------------|
--------------------------------------------|
--------------------------------------------|
Ger's Solo Bridge pickup
---------------------------------|
---------------------------------|
--7b---------7-5-4h5-4h5-4h5-4h5-|
---------------------------------|
---------------------------------|
---------------------------------|

-----------------------------------------------|
-----------------------------------------------|
--4h5h4h5h4h5h4h5-4h5h4h5-5h7h5h7h7------------|
--------------------------------------7h5------|
------------------------------------------7----|
-----------------------------------------------|

-------------------------------------------|
--15b----15-13-12-13-15h13h12-13-15--13----|
----------------------------------------14-|
-------------------------------------------|
-------------------------------------------|
-------------------------------------------|

-----------12------------------------------|
--12-13-15-----15-13-12-15-13h12-----------|
---------------------------------14-12-----|
-------------------------------------------|
-------------------------------------------|
-------------------------------------------|

---------------------------17-------17-19-20-22-|
------17----17-18-17-18-20----18-20-------------|
--19b----19-------------------------------------|
------------------------------------------------|
------------------------------------------------|
------------------------------------------------|

---20-19-17----17--------------17--------|
------------17----17-20b----17----17-20--|b
-----------------------------------------|
-----------------------------------------|
-----------------------------------------|
-----------------------------------------|

----------------------------------------------------------------|
----------------------------------------------------------------|
----19h17-12h14h12h14h12h14-------------------------------------|
----------------------------12h14h12h14h12h14-10h12h10h12-------|
----------------------------------------------------------12/---|
----------------------------------------------------------------|

-------------------------------------------------------------------------------|
--17h20h17----17h20h17----17h20h17----17h20h17----17h20h17----17h20h17----20~--|
-----------19----------19----------19----------19----------19----------19------|
-------------------------------------------------------------------------------|
-------------------------------------------------------------------------------|
-------------------------------------------------------------------------------|

Pre Chorus
E------------|-------------|
B------------|-------------|
G------------|-------------|
D--7---7---7-|--3---5---5--|
A--7---7---7-|--3---5---5--|
E--5-555-555-|--1---5---3--|
Each chord that pattern

Chorus
Chorus
E---------------------------|-----|-----|-----|-----|
B---------------------------|-----|-----|-----|-----|
Go--x5-x5-x5-x5-x5-x5-x5-x5o|o---o|o---o|o---o|o---o|
Do-7-----3-----5-----5-----o|o--7o|o--3o|o--5o|o--5o|
A--7-----3-----5-----5------|---7-|---3-|---5-|---5-|
E--5-----1-----5-----3------|-555-|-111-|-555-|-333-|-

Outro
Intro: Section A (stonger)

Intro: Section B (softer)
Comments