Iron Maiden - No More Lies Chords & Tabs

 

No More Lies Chords & Tabs

Iron Maiden Chords & Tabs

Version: 7 Type: Tab 0 ratings
1 star 2 stars 3 stars 4 stars 5 stars
comments

No More Lies Tab

Band: Iron Maiden
Song: No More Lies
Album: Dance Of Death

Maiden Rule, Up The Irons
Intro
E------------------------------------------------|
B------------------------------------------------|
G---9-7-9--7-9-7-9-9--7-9-7-9-9--7-9-10-12-10-9--|
D--7---------------------------------------------|
A------------------------------------------------|
E------------------------------------------------|

E----------------------------------------------------|
B----------------------------------------------------|
G--7-9-7------------------------------------------5--|
D-------10-10--9-10-9-10-10--9-10-9-7-7--5-7-5-7-5---|
A----------------------------------------------------|
E----------------------------------------------------|

E-----------------------------------|----------------------|
B-----------------------------------|----------------------|
G---9-9-9-9-7-9---9-9-9-9-10-9-7-9--|---9-9-9-9-10-9-10-9--|
D--7-------------7------------------|--7-------------------|
A-----------------------------------|----------------------|
E-----------------------------------|----------------------|

E--5-7-8--5-7-8--5-7-8--10-8-7-8-7---|
B---------------------------------8--|
G------------------------------------|
D------------------------------------|
A------------------------------------|
E------------------------------------|

Verse 1
E------------------------------------------------------------|
B------------------------------------------------------------|
G------------------------------------------------------------|
D----9---9---9----5---5---5------7---7---7------5---5---5----|
A--7---7---7---7-3---3---3--3--5---5---5---5--5---5---5---5--|
E------------------------------------------------------------|

Pre Chorus 1
E-------------------------------------------|
B-------------------------------------------|
G-------------------------------------------|
D-------------------------------------------|
A----7---7-----3---3-----5---5-----5---5----|
E--5---5---5-1---1---1-3---3---3-3---3---3--|

Chorus
E-----------------|
B-----------------|
G-----------------|
D--7---3---5---5--|
A--7---3---5---5--|
E--5---1---3---3--|

Verse 2
E-----------------------|
B-----------------------|
G-----------------------|
D--7-----3-----5-----5--|
A--7-----3-----5-----5--|
E--5-----1-----3-----3--|

Pre Chorus
E-----------------|
B-----------------|
G-----------------|
D--7---3---5---5--|
A--7---3---5---5--|
E--5---1---3---3--|

Chorus
E-----------------|
B-----------------|
G-----------------|
D--7---3---5---5--|
A--7---3---5---5--|
E--5---1---3---3--|

Faster more powerful intro
E------------------------------------------------|
B------------------------------------------------|
G---9-7-9--7-9-7-9-9--7-9-7-9-9--7-9-10-12-10-9--|
D--7---------------------------------------------|
A------------------------------------------------|
E------------------------------------------------|

E----------------------------------------------------|
B----------------------------------------------------|
G--7-9-7------------------------------------------5--|
D-------10-10--9-10-9-10-10--9-10-9-7-7--5-7-5-7-5---|
A----------------------------------------------------|
E----------------------------------------------------|

E-----------------------------------|----------------------|
B-----------------------------------|----------------------|
G---9-9-9-9-7-9---9-9-9-9-10-9-7-9--|---9-9-9-9-10-9-10-9--|
D--7-------------7------------------|--7-------------------|
A-----------------------------------|----------------------|
E-----------------------------------|----------------------|

E--5-7-8--5-7-8--5-7-8--10-8-7-8-7---|
B---------------------------------8--|
G------------------------------------|
D------------------------------------|
A------------------------------------|
E------------------------------------|

Daves Solo
--------------------------------|
--------------------------------|
--7b-9-9-9-9-9-9-9-9-9-9--------|
--------------------------------|
--------------------------------|
--------------------------------|

--------12-15-12----12h15h12----12h15h12-----12h15h12----|
-----13----------15b---------15b---------15b----------15-|
--14-----------------------------------------------------|
---------------------------------------------------------|
---------------------------------------------------------|
---------------------------------------------------------|

-----12h17h12------------------------------------------------|
--13----------13-12h13h12----12h13h12------------------------|
--------------------------14----------14r--14h12-14-12-------|
-------------------------------------------------------14-12-|
-------------------------------------------------------------|
-------------------------------------------------------------|

----------------------------------12-15b---15b---|
--12h15h12h15------------------13----------------|
--------------12h14h12h14/7/14-------------------|
-------------------------------------------------|
-------------------------------------------------|
-------------------------------------------------|

----------17--20-19h20h19-17-19~-------|--20--19--17------------------------|
------17-------------------------------|--------------20--18--17------------|
--17-----------------------------------|--------------------------19~-------|
---------------------------------------|------------------------------------|
---------------------------------------|------------------------------------|
---------------------------------------|------------------------------------|

--------17----------------------------------|
-----17----17----------------------17h20h17-|
--19----------19r--17h19-------19b----------|
--------------------------------------------|
--------------------------------------------|
--------------------------------------------|
[ Tab from: http://www.guitartabs.cc/tabs/i/iron_maiden/no_more_lies_tab_ver_7.html ]
---------------------------17h20h17----------------|
-----17h20h17-----17h20h17----------17-20b---20b---|
--19b---------19b----------------------------------|
---------------------------------------------------|
---------------------------------------------------|
---------------------------------------------------|

Adrians Solo
-------------------------------|---------------------------------------|
-------------------------------|----------------------8---------8-10---|
-------------------------------|--7---------9------7-----9--10---------|
--7--------7--9--10--7--9--10--|-----9--10-----10----------------------|
-------------------------------|---------------------------------------|
-------------------------------|---------------------------------------|

-------5h8h5-----------5----------------|----------------------------------|
----8b-------5h8h5---5---8h5------------|-----------------8----------------|
-------------------7b--------7h5---5h7--|------7-9-10-9-7---9-10-----------|
---------------------------------7------|----7-------------------10-9-10---|
----------------------------------------|----------------------------------|
----------------------------------------|----------------------------------|

--12h17h12----------12h17h12----------12h17h12----------12h17h12-------|
-----------13----13----------13----13----------13----13----------------|
--------------14----------------14----------------14-------------14-14-|
-----------------------------------------------------------------------|
-----------------------------------------------------------------------|
-----------------------------------------------------------------------|

-------------------------------------|
-------------------------------------|
------14-12-10----12----10----9------|
---------------14----14----12--------|
--------------------------------12---|
-------------------------------------|

--------------------------------12-------12-13----|
-----12-13----12-13-15-12-13-15----13-15-------15-|
--14-------14-------------------------------------|
--------------------------------------------------|
--------------------------------------------------|
--------------------------------------------------|

--------------------------17------17--19b---|
--17--18--20--17--18--20------20------------|
--------------------------------------------|
--------------------------------------------|
--------------------------------------------|
--------------------------------------------|

Janicks Solo
---------------------------------|
---------------------------------|
--7b---------7-5-4h5-4h5-4h5-4h5-|
---------------------------------|
---------------------------------|
---------------------------------|

-----------------------------------------------|
-----------------------------------------------|
--4h5h4h5h4h5h4h5-4h5h4h5-5h7h5h7h7------------|
--------------------------------------7h5------|
------------------------------------------7----|
-----------------------------------------------|

-------------------------------------------|
--15b----15-13-12-13-15h13h12-13-15--13----|
----------------------------------------14-|
-------------------------------------------|
-------------------------------------------|
-------------------------------------------|

-----------12------------------------------|
--12-13-15-----15-13-12-15-13h12-----------|
---------------------------------14-12-----|
-------------------------------------------|
-------------------------------------------|
-------------------------------------------|

---------------------------17-------17-19-20-22-|
------17----17-18-17-18-20----18-20-------------|
--19b----19-------------------------------------|
------------------------------------------------|
------------------------------------------------|
------------------------------------------------|

---20-19-17----17--------------17--------|
------------17----17-20b----17----17-20--|b
-----------------------------------------|
-----------------------------------------|
-----------------------------------------|
-----------------------------------------|

----------------------------------------------------------------|
----------------------------------------------------------------|
----19h17-12h14h12h14h12h14-------------------------------------|
----------------------------12h14h12h14h12h14-10h12h10h12-------|
----------------------------------------------------------12/---|
----------------------------------------------------------------|

-------------------------------------------------------------------------------|
--17h20h17----17h20h17----17h20h17----17h20h17----17h20h17----17h20h17----20~--|
-----------19----------19----------19----------19----------19----------19------|
-------------------------------------------------------------------------------|
-------------------------------------------------------------------------------|
-------------------------------------------------------------------------------|

Pre Chorus
E-----------------|
B-----------------|
G-----------------|
D--7---3---5---5--|
A--7---3---5---5--|
E--5---1---3---3--|

Chorus
E-----------------|
B-----------------|
G-----------------|
D--7---3---5---5--|
A--7---3---5---5--|
E--5---1---3---3--|

Outro
E------------------------------------------------|
B------------------------------------------------|
G---9-7-9--7-9-7-9-9--7-9-7-9-9--7-9-10-12-10-9--|
D--7---------------------------------------------|
A------------------------------------------------|
E------------------------------------------------|

E----------------------------------------------------|
B----------------------------------------------------|
G--7-9-7------------------------------------------5--|
D-------10-10--9-10-9-10-10--9-10-9-7-7--5-7-5-7-5---|
A----------------------------------------------------|
E----------------------------------------------------|

E-------------------------------------|
B-------------------------------------|
G---9-9-9-9-7-9---9-9-9-9-10-9-7-9----|
D--7-------------7-----------------7--|
A-------------------------------------|
E-------------------------------------|
Comments